Home » A » Akira Yamaoka »

Akira Yamaoka - Silent Hill Theme Tabs

Artists:  A B C D E F G H I J K L M N O P Q R S T U V W X Y Z # 

Silent Hill Theme Tabs

(ver. 2) Click to play this song!
Akira Yamaoka
Part1:

e||-12-12-12-12-12-12-12-12-|-11-11-11-11-11-11-11-11-|
B||-------------------------|-------------------------|
G||-------------------------|-------------------------|
D||-------------------------|-------------------------|
A||-------------------------|-------------------------|
E||-------------------------|-------------------------|

e|-10-10-10-10-10-10-10-10-10-|-11-11-11-11-11-11-5-5-||
B|----------------------------|-----------------------||
G|----------------------------|-----------------------||
D|----------------------------|-----------------------||
A|----------------------------|-----------------------||
E|----------------------------|-----------------------|| x2

e|-13-13-13-13-13-13-13-13-|-13-13-13-13-15-15-15-15-|-10-10-10-10-8-8-10-10-|
B|-------------------------|-------------------------|-----------------------|
G|-------------------------|-------------------------|-----------------------|
D|-------------------------|-------------------------|-----------------------|
A|-------------------------|-------------------------|-----------------------|
E|-------------------------|-------------------------|-----------------------|

e|-12-12-12-12-12-12-12-12-|-12-12-12-12-12-12-12-12-|
B|-------------------------|-------------------------|
G|-------------------------|-------------------------|
D|-------------------------|-------------------------|
A|-------------------------|-------------------------|
E|-------------------------|-------------------------|

e|-11-11-11-11-11-11-11-11-|-11-11-11-11-11-11-11-11-|
B|-------------------------|-------------------------|
G|-------------------------|-------------------------|
D|-------------------------|-------------------------|
A|-------------------------|-------------------------|
E|-------------------------|-------------------------|


Part1.5:

e||------------------|------------------|------------------|
B||------------------|------------------|------------------|
G||-0----------------|--0-----0---------|------------------|
D||------------------|-----7------4--0--|------------------|
A||------------------|------------------|------------------|
E||------------------|------------------|------------------|

e|------------------|------------------|------------------||
B|------------------|---------------3--|------------------||
G|-0----------------|--0-----0---------|------------------||
D|------------------|-----7------4-----|------------------||
A|------------------|------------------|------------------||
E|------------------|------------------|------------------||x2


Part2:

e|-12-12-12-12-12-12-12-12-|-12-12-12-12-10-10-10-10-|
B|-------------------------|-------------------------|
G|-------------------------|-------------------------|
D|-------------------------|-------------------------|
A|-------------------------|-------------------------|
E|-------------------------|-------------------------|

e|-12-12-12-12-12-12-12-12-|-12-12-12-12-15-15-15-15-|
B|-------------------------|-------------------------|
G|-------------------------|-------------------------|
D|-------------------------|-------------------------|
A|-------------------------|-------------------------|
E|-------------------------|-------------------------|

  
e|-12-12-12-12-12-12-12-12-|-12-12-12-12-10-10-10-10-|
B|-------------------------|-------------------------|
G|-------------------------|-------------------------|
D|-------------------------|-------------------------|
A|-------------------------|-------------------------|
E|-------------------------|-------------------------|

e|-12-12-12-12-12-12-7-7-|-7-7-7-7-5-5-5-5-|
B|-----------------------|-----------------|
G|-----------------------|-----------------|
D|-----------------------|-----------------|
A|-----------------------|-----------------|
E|-----------------------|-----------------|

e|-12-12-12-12-12-12-12-12-|-12-12-12-12-10-10-10-10-|
B|-------------------------|-------------------------|
G|-------------------------|-------------------------|
D|-------------------------|-------------------------|
A|-------------------------|-------------------------|
E|-------------------------|-------------------------|

e|-12-12-12-12-12-12-15-15-|-15-15-15-15-12-12-12-12-|
B|-------------------------|-------------------------|
G|-------------------------|-------------------------|
D|-------------------------|-------------------------|
A|-------------------------|-------------------------|
E|-------------------------|-------------------------|
  
e|-7-7-7-7-7-7-7-7-|-7-7-7-7-7-7-7-7-|
B|-----------------|-----------------|
G|-----------------|-----------------|
D|-----------------|-----------------|
A|-----------------|-----------------|
E|-----------------|-----------------|

e|-8-8-8-8-8-8-8-8-|-7-7-7-7-7-7-7-7-|
B|-----------------|-----------------|
G|-----------------|-----------------|
D|-----------------|-----------------|
A|-----------------|-----------------|
E|-----------------|-----------------|


Part2.5:

e|------------------||------------------|------------------|------------------|------------------||
B|------------------||------------------|------------------|------------------|------------------||
G|------------------||----------2-------|----------3-------|----------4-------|----------3-------||
D|---------------0--||------0-------0---|------0-------0---|------0-------0---|------0-------0---||
A|------------------||--0---------------|--1---------------|--2---------------|--1---------------||
E|------------------||------------------|------------------|------------------|------------------|| x4


Part3:
 
e|-13-13-13-13-13-13-13-13-|-13-13-13-13-12-12-12-12-|
B|-------------------------|-------------------------|
G|-------------------------|-------------------------|
D|-------------------------|-------------------------|
A|-------------------------|-------------------------|
E|-------------------------|-------------------------|

e|-13-13-13-13-13-13-12-12-|-10-10-10-10-12-12-12-12-|
B|-------------------------|-------------------------|
G|-------------------------|-------------------------|
D|-------------------------|-------------------------|
A|-------------------------|-------------------------|
E|-------------------------|-------------------------|

e|-8-8-8-8-8-8-8-8-|--8-8-5-5-12-12-12-12-|-10-10-10-10-10-10-10-10-|-10-10-10-10-5-5-5-5-|
B|-----------------|----------------------|-------------------------|---------------------|
G|-----------------|----------------------|-------------------------|---------------------|
D|-----------------|----------------------|-------------------------|---------------------|
A|-----------------|----------------------|-------------------------|---------------------|
E|-----------------|----------------------|-------------------------|---------------------|

e|-13-13-13-13-13-13-13-13-|-13-13-13-13-17-17-17-17-|
B|-------------------------|-------------------------|
G|-------------------------|-------------------------|
D|-------------------------|-------------------------|
A|-------------------------|-------------------------|
E|-------------------------|-------------------------|

e|-17-17-17-17-17-17-17-17-|-17-17-15-15-15-15-13-13-|
B|-------------------------|-------------------------|
G|-------------------------|-------------------------|
D|-------------------------|-------------------------|
A|-------------------------|-------------------------|
E|-------------------------|-------------------------|

e|-12-12-12-8-8-8-8-8-|-8-8-5-5-12-12-12-12-|-10-10-10-10-10-10-10-10-|-10-10-10-10-10-10-10-10-|
B|--------------------|---------------------|-------------------------|-------------------------|
G|--------------------|---------------------|-------------------------|-------------------------|
D|--------------------|---------------------|-------------------------|-------------------------|
A|--------------------|---------------------|-------------------------|-------------------------|
E|--------------------|---------------------|-------------------------|-------------------------|

    Note:
    The last time Part 3 is played, I play the 12 as a 13:
    e|-12-12-12-8-8-8-8-8-|-8-8-5-5-13-13-13-13-|-10-10-10-10-10-10-10-10-|-10-10-10-10-10-10-10-10-|
    B|--------------------|---------------------|-------------------------|-------------------------|
    G|--------------------|---------------------|-------------------------|-------------------------|
    D|--------------------|---------------------|-------------------------|-------------------------|
    A|--------------------|---------------------|-------------------------|-------------------------|
    E|--------------------|---------------------|-------------------------|-------------------------|

    
Part3.5:

e||----10------10---10--12----13---------13---13--15----12-------12---12----13-------10-------||
B||-10------10---10-------------------13---13-----------------13---13-------------------------||
G||-------------------------------------------------------------------------------------------||
D||-------------------------------------------------------------------------------------------||
A||-------------------------------------------------------------------------------------------||
E||-------------------------------------------------------------------------------------------|| x2

e||----13--12--10---------13--12--10-----------8----5-12---12----10--|
B||-10-----------------10------------------10------------------------|
G||------------------------------------------------------------------|
D||------------------------------------------------------------------|
A||------------------------------------------------------------------|
E||------------------------------------------------------------------|

e||----13--12--10---------13--12--13-------15--8----5-13--13----10--|
B||-10-----------------10-------------------------------------------|
G||-----------------------------------------------------------------|
D||-----------------------------------------------------------------|
A||-----------------------------------------------------------------|
E||-----------------------------------------------------------------|            
Submit corrections

↑ Back to top | Tablatures and chords for acoustic guitar and electric guitar, ukulele, drums are parodies/interpretations of the original songs. You may use it for private study, scholarship, research or language learning purposes only