Home » A » Akira Yamaoka »

Akira Yamaoka - Silent Hill Theme Tabs

Artists:  A B C D E F G H I J K L M N O P Q R S T U V W X Y Z # 

Silent Hill Theme Tabs

(ver. 1) Click to play this song!
Akira Yamaoka
Section 1

[ Gtr. 1
[e||-12-12-12-12-12-12-|-11-11-11-11-11-11-|-10-10-10-10-10-10-|-11-11-11-11-5-5-||
[B||-------------------|-------------------|-------------------|-----------------||
[G||-------------------|-------------------|-------------------|-----------------||   2x
[D||-------------------|-------------------|-------------------|-----------------||
[A||-------------------|-------------------|-------------------|-----------------||
[E||-------------------|-------------------|-------------------|-----------------||
[
[ Gtr. 2 
[e||---------0---------|-------------------|---0---------------|--1---------0----||
[B||-------------------|---3---------------|-------------------|-----------------||
[G||------2-----2------|-------2-----------|--------2----------|-----2---------2-||
[D||----2---------2----|------------2------|-------------2-----|--------2--------||
[A||-------------------|-------------------|-------------------|-----------------||
[E||-------------------|-------------------|-------------------|-----------------||

[ Gtr. 1
[|-13-13-13-13-13-13-13-13-|-15-15-15-|-10-10-10-|-8-8-|-10-10-| 
[|-------------------------|----------|----------|-----|-------|
[|-------------------------|----------|----------|-----|-------|
[|-------------------------|----------|----------|-----|-------|
[|-------------------------|----------|----------|-----|-------|
[|-------------------------|----------|----------|-----|-------|
[ Gtr. 2 
[|--------0----------------|----------|-0------1-|-----|---0---|
[|---------------3---------|----------|---3------|-3---|-------|
[|----2------2-------2-----|----2-----|-----2----|---2-|-------|
[|-3-----------------------|-3--------|----------|-----|-------|
[|-------------------------|----------|----------|-----|-------|
[|-------------------------|----------|----------|-----|-------|

[ Gtr. 1
[|-12-12-12-12-12-12-12-12-|-11-11-11-11-11-11-11-11-|
[|-------------------------|-------------------------|
[|-------------------------|-------------------------|
[|-------------------------|-------------------------|
[|-------------------------|-------------------------|
[|-------------------------|-------------------------|
[
[ Gtr. 2 
[|-------0--------0--------|--0--0--0--0--0--0--0----|
[|----------0--------0-----|--0--0--0--0--0--0--0--0-|
[|----2--------2--------2--|--2--2--2--2--2--2--2--0-|
[|-1-----------------------|--1--1--1--1--1--1--1----|
[|-------------------------|-------------------------|
[|-------------------------|-------------------------|



Section 2

[ Gtr. 2 
[   Em9                              D       Em9                            D
[ Gtr. 1
[||--------------------------------------|----------------------------------10---||
[||--------------------------------------|----------------------------------x----||
[||--12----------12—12/14---12---11--7---|--4/12-------12—12/14---12---11---7----||   x2
[||--x-----------x--x--x----x----x---x---|--x-x--------x---x------x----x---------||
[||--10----------10—10/12---10---9---5---|--2/10-------10—10/12---10---9---------||
[||--------------------------------------|---------------------------------------||



Section 3

[ Gtr. 2 
[ Cadd9                               Asus2
[ Gtr. 1
[|-12-12-12-12-12-12-12-12--10-10-10-|-12-12-12-12-12-12-12-12--15-15-15-|
[|-----------------------------------|-----------------------------------|
[|-----------------------------------|-----------------------------------|
[|-----------------------------------|-----------------------------------|
[|-----------------------------------|-----------------------------------|
[|-----------------------------------|-----------------------------------|

[ Gtr. 2 
[  Cadd9                              Asus2
[ Gtr. 1
[|-12-12-12-12-12-12-12-12--10-10-10-|-12-12-12-12--7-7-7-7-7-7--5-5-5-5-|
[|-----------------------------------|-----------------------------------|
[|-----------------------------------|-----------------------------------|
[|-----------------------------------|-----------------------------------|
[|-----------------------------------|-----------------------------------|
[|-----------------------------------|-----------------------------------|

[ Gtr. 2 
[  Cadd9                              Asus2
[ Gtr. 1
[|-12-12-12-12-12-12-12-12--10-10-10-|-12-12-12-12--15-15-15-15--12-12-12-|
[|-----------------------------------|------------------------------------|
[|-----------------------------------|------------------------------------|
[|-----------------------------------|------------------------------------|
[|-----------------------------------|------------------------------------|
[|-----------------------------------|------------------------------------|

[ Gtr. 2 
[   B7
[ Gtr. 1
[|-7-7-7-7-7-7-7-7-7-7-7-7-7-7-7-7-|-8-8-8-8-8-8-8-8-|-7-7-7-7-7-7-7-7-|
[|---------------------------------|-----------------|-----------------|
[|---------------------------------|-----------------|-----------------|
[|---------------------------------|-----------------|-----------------|
[|---------------------------------|-----------------|-----------------|
[|---------------------------------|-----------------|-----------------|



Section 4

[ Gtr. 1
[|------------------------------------|--------------------------------0---|
[|------3-------3-------3-------3-----|------3-------3-------3-------3-----|
[|----2---2---3---3---4---4---3---3---|----2---2---3---3---4---4---3-------|
[|--0-------0-------0-------0---------|--0-------0-------0-------0---------|
[|------------------------------------|------------------------------------|
[|------------------------------------|------------------------------------|
[
[ Gtr. 2 
[|------------------------------------|------------------------------------|
[|------------------------------------|------------------------------------|
[|------------------------------------|------------------------------------|
[|------0-------0-------0-------0-----|------0-------0-------0-------0-----|
[|--0-0---0-1-1---1-2-2---2-1-1---1---|--0-0---0-1-1---1-2-2---2-1-1---1---|
[|------------------------------------|------------------------------------|

[ Gtr. 1
[|------------------------------------|--------------------------------0---|
[|------3-------3-------3-------3-----|------3-------3-------3-------3-----|
[|----2---2---3---3---4---4---3---3---|----2---2---3---3---4---4---3-------|
[|--0-------0-------0-------0---------|--0-------0-------0-------0---------|
[|------------------------------------|------------------------------------|
[|------------------------------------|------------------------------------|
[
[ Gtr. 2 
[|------------------------------------|------------------------------------|
[|------------------------------------|------------------------------------|
[|--2-0-2-3-2-0-2-3-2-0-2-3-2-0-2-0---|--2-0-2-3-2-0-2-3-2-0-2-3-2-0-2-0---|
[|--0-0-0-0-0-0-0-0-0-0-0-0-0-0-0-0---|--0-0-0-0-0-0-0-0-0-0-0-0-0-0-0-0---|
[|--0-0-0-0-1-1-1-1-2-2-2-2-1-1-1-1---|--0-0-0-0-1-1-1-1-2-2-2-2-1-1-1-1---|
[|------------------------------------|------------------------------------|



Section 5

[ Gtr. 2 
[  Dm/A                                F
[ Gtr. 1
[|-13-13-13-13-13-13-13-13--12-12-12-|-13-13-13-13--12-12-|-10-10-10--12-12-12-|
[|-----------------------------------|--------------------|--------------------|
[|-----------------------------------|--------------------|--------------------|
[|-----------------------------------|--------------------|--------------------|
[|-----------------------------------|--------------------|--------------------|
[|-----------------------------------|--------------------|--------------------|

[ Gtr. 2 
[  C                               Dm/A
[ Gtr. 1
[|--8-8-8-8-8-8-8-8-8-8--5-5--12-12-12-|-10-10-10-10-10-10-10-10--5-5-5-5-|
[|-------------------------------------|----------------------------------|
[|-------------------------------------|----------------------------------|
[|-------------------------------------|----------------------------------|
[|-------------------------------------|----------------------------------|
[|-------------------------------------|----------------------------------|

[ Gtr. 2 
[  Dm/A                             F
[ Gtr. 1
[|-13-13-13-13-13-13-13-13--17-17-17-17-17-17-17-17-17--15-15-15-15--13-13-|
[|-------------------------------------------------------------------------|
[|-------------------------------------------------------------------------|
[|-------------------------------------------------------------------------|
[|-------------------------------------------------------------------------|
[|-------------------------------------------------------------------------|

[ Gtr. 2 
[  C                               Dm/A
[ Gtr. 1
[|--8-8-8-8-8-8-8-8-8-8--5-5--12-12-12-|-10-10-10-10-10-10-10-10-10-10-10-|
[|-------------------------------------|----------------------------------|
[|-------------------------------------|----------------------------------|
[|-------------------------------------|----------------------------------|
[|-------------------------------------|----------------------------------|
[|-------------------------------------|----------------------------------|            
Submit corrections

↑ Back to top | Tablatures and chords for acoustic guitar and electric guitar, ukulele, drums are parodies/interpretations of the original songs. You may use it for private study, scholarship, research or language learning purposes only