» » »

Airbourne - Runnin' Wild Tabs

Artists:  A B C D E F G H I J K L M N O P Q R S T U V W X Y Z # 

Runnin' Wild Tabs

(ver. 3) Click to play this song!
Airbourne
 Rating:
4/5 (4 votes)

 Runnin' Wild lessons Tabs too difficult? Try these video lessons and learn fast
 
                Intro:

e|---------------------------------------------------------------------|
B|---------------------------------------------------------------------|
G|-8-8-8--------------------------------8-8-8---------------------10---|
D|-8-8-8----------------------3---------8-8-8---------------------10---|
A|-6-6-6---------8-6-3-8-6-3--3---------6-6-6--------8-6-3-8-6-3--8----|
E|---------------6-4-1-6-4-1--1----------------------6-4-1-6-4-1-------|

   
   pm    pm   pm                                     pm    pm  pm
   ...   ...   .    D#5                       F5     ...   ...  .
e|---------------------------------------------------------------------|
B|---------------------------------------------------------------------|
G|-----------------8-8-8-----------------------------------------------|
D|-----3-----3---3-8-8-8---------3-----3------3----------3----3---3----|
A|-----3-----3---3-6-6-6---------1-6-3-1-6-3--3----------3----3---3----|
E|-1-1---1-1---1-------------------4-1---4-1--1-------1-1--1-1--1------|
                                       pm     pm
    D#5                       F5       ...    ...
e|---------------------------------------------------------|
B|---------------------------------------------------------|
G|-8-8-8----------------------10---------------------------|
D|-8-8-8---------3-----3------10------------3-----3--------|
A|-6-6-6---------1-6-3-1-6-3--8-------------3-----3---1----|
E|-----------------4-1---4-1------------1-1---1-1---1---4--|

Verse:
  pm   pm         pm   pm         pm   pm         pm   pm
   .   ...         .   ...         .   ...         .   ...
e|--------------------------------------------------------------------|
B|--------------------------------------------------------------------|
G|--------------------------------------------------------------------|
D|---3-----3---8\6---3-----3---8\6---3-----3---8\6---3-----3---8\6----|
A|---3-----3---8\6---3-----3---8\6---3-----3---8\6---3-----3---8\6----|
E|-1-1-1-1-1-1-6\4-1-1-1-1-1-1-6\4-1-1-1-1-1-1-6\4-1-1-1-1-1-1-6\4----|2x

Cry me a river...
Refrain:              pm   pm         pm   pm         
  D#5        F5        .   ...         .   ...           D#5        F5
e|--------------------------------------------------------------------|
B|--------------------------------------------------------------------|
G|-8---------3--------------------------------------------8---------3-|
D|-8---------3-----------3-----3---8\6---3-----3---8\6----8---------3-|
A|-6---------1-----------3-----3---8\6---3-----3---8\6----6---------1-|
E|---------------------1-1-1-1-1-1-6\4-1-1-1-1-1-1-6\4----------------|

 I gotta get away...       
          C5               
e|-------------------------|
B|-------------------------|
G|-5--5--5-5-5-5-5-5-5-5---|
D|-5--5--5-5-5-5-5-5-5-5-3-|
A|-3--3--3-3-3-3-3-3-3-3-3-|
E|-----------------------1-|
   
Chorus: Runnin...
    F5                      D#5
e|------------------------------------------------|
B|------------------------------------------------|
G|-10-10--------------------8-8-------------------|
D|-10-10-------3-----3------8-8-------3-----3-----|
A|-8--8--------1-6-3-1-6-3--6-6-------1-6-3-1-6-3-|
E|---------------4-1---4-1--------------4-1---4-1-|2x

Verse:
  pm   pm         pm   pm         pm   pm         pm   pm
   .   ...         .   ...         .   ...         .   ...
e|--------------------------------------------------------------------|
B|--------------------------------------------------------------------|
G|--------------------------------------------------------------------|
D|---3-----3---8\6---3-----3---8\6---3-----3---8\6---3-----3---8\6----|
A|---3-----3---8\6---3-----3---8\6---3-----3---8\6---3-----3---8\6----|
E|-1-1-1-1-1-1-6\4-1-1-1-1-1-1-6\4-1-1-1-1-1-1-6\4-1-1-1-1-1-1-6\4----|2x

Cry me a river...
Refrain:              pm   pm         pm   pm         
  D#5        F5        .   ...         .   ...           D#5        F5
e|--------------------------------------------------------------------|
B|--------------------------------------------------------------------|
G|-8---------3--------------------------------------------8---------3-|
D|-8---------3-----------3-----3---8\6---3-----3---8\6----8---------3-|
A|-6---------1-----------3-----3---8\6---3-----3---8\6----6---------1-|
E|---------------------1-1-1-1-1-1-6\4-1-1-1-1-1-1-6\4----------------|

 I gotta get away...       
          C5               
e|-------------------------|
B|-------------------------|
G|-5--5--5-5-5-5-5-5-5-5---|
D|-5--5--5-5-5-5-5-5-5-5-3-|
A|-3--3--3-3-3-3-3-3-3-3-3-|
E|-----------------------1-|

Chorus: Runnin...
    F5                      D#5
e|------------------------------------------------|
B|------------------------------------------------|
G|-10-10--------------------8-8-------------------|
D|-10-10-------3-----3------8-8-------3-----3-----|
A|-8--8--------1-6-3-1-6-3--6-6-------1-6-3-1-6-3-|
E|---------------4-1---4-1--------------4-1---4-1-|4x

Solo:(Gtr1)
Hey hey hey!          Hey Hey Hey!              
e|----------10-8----------------------------------|
B|----------11-9----------------------------------|
G|---------------10~~~------------10-8------------|
D|-------------------------------------10-8-6~~-3-|
A|------------------------------------------------|
E|------------------------------------------------|

Hey hey hey!        Hey Hey Hey                   
e|-------------------------------------12b13r~~---|
B|------------------------------12b13r------------|
G|------------------------------13b14r------------|
D|------------------------------------------------|
A|----------6-8-8~~~------------------------------|
E|------------------------------------------------|

Solo: (Gtr2)
Hey Hey Hey!
    F5                   F5
e|------------------------------------------|
B|------------------------------------------|
G|------------------------------------------|
D|-3-3-3---3-----3------3-3-3---3-----3-----|
A|-3-3-3---1-6-3-1-6-3--3-3-3---1-6-3-1-6-3-|
E|-1-1-1-----4-1---4-1--1-1-1-----4-1---4-1-|4x

    D#5                      F5          D#5                      F5
e|---------------------------------------------------------------------|
B|---------------------------------------------------------------------|
G|-8-8-8--------------------------------8-8-8---------------------10---|
D|-8-8-8---------3-----3------3---------8-8-8--------3-----3------10---|
A|-6-6-6---------1-6-3-1-6-3--3---------6-6-6--------1-6-3-1-6-3--8----|
E|-----------------4-1---4-1--1------------------------4-1---4-1-------|

No I wont turn around... 
  pm   pm         pm   pm         pm   pm         pm   pm
   .   ...         .   ...         .   ...         .   ...
e|--------------------------------------------------------------------|
B|--------------------------------------------------------------------|
G|------------------------------------------------------------------8-|
D|---3-----3---8\6---3-----3---8\6---3-----3---8\6---3-----3---8\6--8-|
A|---3-----3---8\6---3-----3---8\6---3-----3---8\6---3-----3---8\6--6-|
E|-1-1-1-1-1-1-6\4-1-1-1-1-1-1-6\4-1-1-1-1-1-1-6\4-1-1-1-1-1-1-6\4----|


Cry me a river...
Refrain:              pm   pm         pm   pm         
  D#5        F5        .   ...         .   ...           D#5        F5
e|--------------------------------------------------------------------|
B|--------------------------------------------------------------------|
G|-8---------3--------------------------------------------8---------3-|
D|-8---------3-----------3-----3---8\6---3-----3---8\6----8---------3-|
A|-6---------1-----------3-----3---8\6---3-----3---8\6----6---------1-|
E|---------------------1-1-1-1-1-1-6\4-1-1-1-1-1-1-6\4----------------|

 I gotta get away...       
          C5               
e|-------------------------|
B|-------------------------|
G|-5--5--5-5-5-5-5-5-5-5---|
D|-5--5--5-5-5-5-5-5-5-5-3-|
A|-3--3--3-3-3-3-3-3-3-3-3-|
E|-----------------------1-|

Chorus: Runnin...
    F5                      D#5
e|------------------------------------------------|
B|------------------------------------------------|
G|-10-10--------------------8-8-------------------|
D|-10-10-------3-----3------8-8-------3-----3-----|
A|-8--8--------1-6-3-1-6-3--6-6-------1-6-3-1-6-3-|
E|---------------4-1---4-1--------------4-1---4-1-|8x

Outro:
Hey Hey Hey!....
    F5      A#5 D#5      F5           A#5
e|--------------------------------------------|
B|--------------------------------------------|
G|----------8---------------------8-----------|
D|-3-3-3--3-8-6-8-8-6-3--3-3-3--3-8-6-8-8-6-3-|
A|-3-3-3--3-6-6-8-8-6-3--3-3-3--3-6-6-8-8-6-3-|
E|-1-1-1--1---4-6-6-4-1--1-1-1--1---4-6-6-4-1-|4x

   F5
e|-----|
B|-----|
G|-----|
D|-3-3-|
A|-3-3-|
E|-1-1-|
            
Submit corrections


        Runnin' Wild lessons Hard to play? Try these video lessons and learn fast Runnin' Wild lessons
        
↑ Back to top | Tablatures and chords for acoustic guitar and electric guitar, ukulele, drums are parodies/interpretations of the original songs. You may use it for private study, scholarship, research or language learning purposes only