» » »

Airbourne - Running Hot Tabs

Artists:  A B C D E F G H I J K L M N O P Q R S T U V W X Y Z # 

Running Hot Tabs

(ver. 2) Click to play this song!
Airbourne
 Rating:
3.2/5 (30 votes)

 Running Hot lessons Tabs too difficult? Try these video lessons and learn fast
 
                Tuning: Half-Step Down


##### Main Riff #####

e|---------------------------------|
B|---------------------------------|
G|-2---2-2---2-2---2-2---2-2-------|
D|-0h2-2-0h2-2-0h2-2-2---2-2-------|
A|-0---0-0---0-0---0-0---0-0-------|
E|---------------------------------|


##### Figure 1 #####

e|---------------------------------|-2---2-2---2-2-------------------|
B|---------------------------------|-3---3-3---3-3-------------------|
G|-4---4-4---4-4---------------x-x-|-2---2-2---2-2---------------x-x-|
D|-4---4-4---4-4---------------x-x-|-0---0-0---0-0---------------x-x-|
A|-2---2-2---2-2-------------------|---------------------------------|
E|---------------------------------|---------------------------------|

e|---------------------------------|---------------------------------|
B|---------------------------------|---------------------------------|
G|-4---4-4---4-4---------------x-x-|---------------------------------|
D|-4---4-4---4-4---------------x-x-|-2-----2-----2-----2-----2-------|
A|-2---2-2---2-2-------------------|-2-----2-----2-----2-----2-------|
E|---------------------------------|-0-----0-----0-----0-----0-------|
                                   |
                                  e|---------------------------------|
                                  B|---------------------------------|
                   variation for  G|-9-9-9-9-9-9-9-9-9-9-9-9-9-------|
                   rhythm guitar  D|-9-9-9-9-9-9-9-9-9-9-9-9-9-------|
                                  A|-7-7-7-7-7-7-7-7-7-7-7-7-7-------|
                                  E|---------------------------------|


##### Figure 2 #####

e|---------------------------------|-2---2-2---2-2-------------------|
B|---------------------------------|-3---3-3---3-3-------------------|
G|-5---5-5---5-5---------------x-x-|-2---2-2---2-2---------------x-x-|
D|-5---5-5---5-5---------------x-x-|-0---0-0---0-0---------------x-x-|
A|-3---3-3---3-3-------------------|---------------------------------|
E|---------------------------------|---------------------------------|

e|---------------------------------|-3-----3-----3-----2-----2-------|
B|---------------------------------|-3-----3-----3-----3-----3-------|
G|-5---5-5---5-5---------------x-x-|-0-----0-----0-----2-----2-------|
D|-5---5-5---5-5---------------x-x-|-0-----0-----0-----0-----0-------|
A|-3---3-3---3-3-------------------|-------------------0-----0-------|
E|---------------------------------|-3-----3-----3-------------------|



##### Solo #####

Rhythm
e|---------------------------------|---------------------------------|
B|---------------------------------|---------------------------------|
G|-2---2-2---2-2---2-2---2-2-------|---------------------------------|
D|-0h2-2-0h2-2-0h2-2-2---2-2-------|---------------------------------|
A|-0---0-0---0-0---0-0---0-0-------|---------------------------------|
E|---------------------------------|---------------------------------|
repeat as necessary

e|---------------------------------|---------------------------------|
B|---------------------------------|---------------------------------|
G|-2---2-2---2-2---2-2---2-2-------|---------------------------------|
D|-0h2-2-0h2-2-0h2-2-2---2-2-------|-0---0-0---0-0---0-0---0-0---0---|
A|-0---0-0---0-0---0-0---0-0-------|---------------------------------|
E|---------------------------------|-3---3-2---2-3---3-2---2-3---2---|
repeat as necessary


Lead
e|---------------------------------|---------------------------------|
B|---------------------------------|---------------------------------|
G|-2---2-2---2-2---2-2---2-2-----5-|---5-------------5-----------x-x-|
D|-0h2-2-0h2-2-0h2-2-2---2-2-------|-----7p5-7~--7p5---7-----7~--x-x-|
A|-0---0-0---0-0---0-0---0-0-------|----------------7----------------|
E|---------------------------------|---------------------------------|

e|---------------------------------|---------------------------------|
B|---------------------------------|---------------------------------|
G|-2---2-2---2-2---2-2---2-2-------|---5-----5---2p0---5-----5\2-2---|
D|-0h2-2-0h2-2-0h2-2-2---2-2-------|---5---5-5---------5---5-5\2-2---|
A|-0---0-0---0-0---0-0---0-0-//\\\\|-----------------------------0---|
E|---------------------------//\\\\|---------------------------------|
                                           .               .

e|---------------------------------|---------------------------------|
B|---------------------------------|-8-----7-----5-------------------|
G|-2---2-2---2-2---2-2---2-2-----xx|-10b12-9b11--7b9r7p5-----5---x-x-|
D|-0h2-2-0h2-2-0h2-2-2---2-2-----xx|---------------------7-------x-x-|
A|-0---0-0---0-0---0-0---0-0-------|---------------------------------|
E|---------------------------------|---------------------------------|

e|---------------------------------|-------5-------------------------|
B|---------------------------------|-----5---8-5-7br-5---7-7---------|
G|-2---2-2---2-2---2-2---2-2-------|-5h7---------------7-----5-------|
D|-0h2-2-0h2-2-0h2-2-2---2-2-------|---------------------------7-----|
A|-0---0-0---0-0---0-0---0-0-------|---------------------------------|
E|---------------------------------|---------------------------------|

e|---------------------------------|---------------------------------|
B|---------------------------------|---------------------------------|
G|-2---2-2---2-2---2-2---2-2-------|-5-5---5-5---5-5---5-5---5b------|
D|-0h2-2-0h2-2-0h2-2-2---2-2-------|-----7-----7-----7-----7-----7---|
A|-0---0-0---0-0---0-0---0-0-------|---------------------------------|
E|---------------------------------|---------------------------------|

e|---------------------------------|---------------------------------|
B|---------------------------------|---------------------------------|
G|-2---2-2---2-2---2-2---2-2-------|-5-5-7-5-----5-5-7-5-----5-----5-|
D|-0h2-2-0h2-2-0h2-2-2---2-2---5h7-|-----------7-----------7-----7---|
A|-0---0-0---0-0---0-0---0-0-------|---------------------------------|
E|---------------------------------|---------------------------------|

e|----5-5---5-5---5-5---5-5----5-5---|---------------------------------|
B|----5-5---5-5---5-5---5-5----5-5-5-|---------------------------------|
G|-7b9---7b9---7b9---7b9---7b9-------|-7-5---5-----7-5---5-----5//-17--|
D|-----------------------------------|-----7-----7-----7-----7---------|
A|-----------------------------------|---------------------------------|
E|-----------------------------------|---------------------------------|

e|------17-17-----17-17-----17-17-----17-17--------17-----|-------------------------------------------------|
B|------17-17-----17-17-----17-17-----17-17-----17----17--|-20~---20-19----17-20~---20-19----17-20-19-17-17-|
G|-19b21-----19b21-----19b21-----19b21-----19b21----------|-------------------------------------------------|
D|--------------------------------------------------------|-------------------------------------------------|
A|--------------------------------------------------------|-------------------------------------------------|
E|--------------------------------------------------------|-------------------------------------------------|


Lead
e|----------------------------------------------------------------------------|
B|-20b22~---22r20p17-20b22~---22r20p17-20b22~--20b22~--20b22~--20b22~--20b22\-|
G|----------------------------------------------------------------------------|
D|----------------------------------------------------------------------------|
A|----------------------------------------------------------------------------|
E|----------------------------------------------------------------------------|
Rhythm
e|----------------------------------------------------------------------------|
B|----------------------------------------------------------------------------|
G|-2-----------------2-----------------2-------2-------2-------2-------2------|
D|-0-----------------0-----------------0-------0-------0-------0-------0------|
A|-0-----------------0-----------------0-------0-------0-------0-------0------|
E|----------------------------------------------------------------------------|


##### Figure 3 #####

Played by rhythm and lead guitars .. listen for slight variations

e|---------------3-------------3---|-------------------------------3-|
B|---------------3-------------3-3-|-------------3-----------------3-|
G|-2-----------2-0-------------0-2-|-------------2-2-------------2-0-|
D|-2-----------2-0-------------0-0-|-------------0-2-------------2-0-|
A|-0-----------0-----------------0-|-------------0-0-------------0---|
E|---------------3-------------3---|-------------------------------3-|

e|-------------3-------------------|---------------------------2-----|
B|-------------3-3-------------3---|---------------------------3-----|
G|-------------0-2-------------2-2-|---------------2-----------2---2-|
D|-------------0-0-------------0-2-|---------------2-----------0---2-|
A|-------------------------------0-|-----------3-2-0---------------0-|
E|-------------3-2-----------------|---------------------------------|

Above is repeated mainly by rhythm guitar, while lead later continues with:

e|---------------------------------|---------------------------------|
B|-10----10----------8-------------|---7---------------5-------------|
G|-12b14-12b14~------10b12~--------|---9b11~-----------7b9~----------|
D|---------------------------------|---------------------------------|
A|---------------------------------|---------------------------------|
E|---------------------------------|---------------------------------|

e|---------------------------------|---------------------------------|
B|-7-----------------8-------------|---10--------------10-----10-----|
G|-9b11~-------------10b12~--------|---12b14~----------12b14--12b14~-|
D|---------------------------------|---------------------------------|
A|---------------------------------|---------------------------------|
E|---------------------------------|---------------------------------|


e|-17----17----------15------------|---14--------------12------------|
B|-20b22-20b22~------18b20~--------|---17b19~----------15b17~--------|
G|---------------------------------|---------------------------------|
D|---------------------------------|---------------------------------|
A|---------------------------------|---------------------------------|
E|---------------------------------|---------------------------------|

e|-14----------------15------------|---17----17----17----17----17----|
B|-17b19~------------18b20~--------|---20b22-20b22-20b22-20b22-20b22-|
G|---------------------------------|---------------------------------|
D|---------------------------------|---------------------------------|
A|---------------------------------|---------------------------------|
E|---------------------------------|---------------------------------|

Lead the repeats the main riff 2x, while rhythm just hits an A chord on accents,
then the song goes on like before.

Later an outro solo follows, with a rhythm pattern similar to the main solo.
Lead parts are as follows:

e|-------------------------------------------------|
B|-10-10-10----10-10----10-10----10-10----10-10----|
G|-------12b14----12b14----12b14----12b14----12b14-| repeat as necessary
D|-------------------------------------------------|
A|-------------------------------------------------|
E|-------------------------------------------------|


e|-5--5-----5--5-----5--5-----5--5-----5--5--------|
B|-5--5-----5--5-----5--5-----5--5-----5--5--------|
G|-------7b9------7b9------7b9------7b9------7/----| repeat as necessary
D|-------------------------------------------------|
A|-------------------------------------------------|
E|-------------------------------------------------|


e|-17-17-----17-17-----17-17-----17-17-----17-17-----17-|-17----17----17-17----17-17----17-17----17--------|
B|-17-17-----17-17-----17-17-----17-17-----17-17-----17-|-17-17-20b22----20b22----20b22----20b22---b22r20--|
G|------19b21-----19b21-----19b21-----19b21-----19b21---|--------------------------------------------------|
D|------------------------------------------------------|--------------------------------------------------|
A|------------------------------------------------------|--------------------------------------------------|
E|------------------------------------------------------|--------------------------------------------------|

e|-----------17-17-----17-17-----17-17-----17-17-----17-|-17-----------------------------------------------|
B|-17-17-----17-17-----17-17-----17-17-----17-17-----17-|-17-17-20~---20-19----17-20~---20-19----17-20-19--|
G|------19b21-----19b21-----19b21-----19b21-----19b21---|--------------------------------------------------|
D|------------------------------------------------------|--------------------------------------------------|
A|------------------------------------------------------|--------------------------------------------------|
E|------------------------------------------------------|--------------------------------------------------|

e|---------------------------------------|
B|-17-17-20b22~-------------\\\\---------|
G|-------------------------------2-------|
D|-------------------------------2--...--|
A|-------------------------------0-------|
E|---------------------------------------|            
Submit corrections


        Running Hot lessons Hard to play? Try these video lessons and learn fast Running Hot lessons
        
↑ Back to top | Tablatures and chords for acoustic guitar and electric guitar, ukulele, drums are parodies/interpretations of the original songs. You may use it for private study, scholarship, research or language learning purposes only