» » »

Airbourne - Heartbreaker Tabs

Artists:  A B C D E F G H I J K L M N O P Q R S T U V W X Y Z # 

Heartbreaker Tabs

(ver. 1) Click to play this song!
Airbourne
 Rating:
3.7/5 (6 votes)

 Heartbreaker lessons Tabs too difficult? Try these video lessons and learn fast
 
                (Intro)
----------------------------------------------------------------------------
                      HEARTBREAKER - AIRBOURNE
----------------------------------------------------------------------------

intro

Guitar 1

e|---------|
B|---------|
G|-2-2-----|
D|-2-2-----|
A|-0-0-----|
E|---------|

Then Guitar 2 plays

e|--------------3---------------|
B|-x--3--x--3-3-3--3---3--------|
G|-x--2--x--2-2-2--2-2-2--------|
D|-x--0--x--0-0-0--0-2-0--------|
A|-------------------0----------|
E|------------------------------|
            
Submit corrections


        Heartbreaker lessons Hard to play? Try these video lessons and learn fast Heartbreaker lessons
        
↑ Back to top | Tablatures and chords for acoustic guitar and electric guitar, ukulele, drums are parodies/interpretations of the original songs. You may use it for private study, scholarship, research or language learning purposes only