» » »

Airbourne - Cheap Wine & Cheaper Women Tabs

Artists:  A B C D E F G H I J K L M N O P Q R S T U V W X Y Z # 

Cheap Wine & Cheaper Women Tabs

(ver. 2) Click to play this song!
Airbourne
 Rating:
4/5 (14 votes)

 Cheap Wine & Cheaper Women lessons Tabs too difficult? Try these video lessons and learn fast
 
                Airbourne - Cheap Wine And Cheaper Women





intro
play this x4 but only do the slide on the first time.
e|---------------------------------------------------------------|
B|-----------------------------------------3---------------------|
G|-----------------------------------------2---2-----------------|
D|------------------0--------2----------0--0---2-----------------|
A|-17/1---2---0-0h2----0-0h2----2---0h2----0---0-----------------|
E|--------0---------------------0--------------------------------|


Riff 2
play twice
e|-------3--------------|
B|-----3-3--------------|
G|-----2-0---2----------|
D|-2---0-0---2--2-------|
A|-2---0-----0--2-------|
E|-0------------0-------|


play this 4 more times
e|-----------------------------------------------------------|
B|-------------------------------------3---------------------|
G|-------------------------------------2---2-----------------|
D|--------------0--------2----------0--0---2-----------------|
A|----2---0-0h2----0-0h2----2---0h2----0---0-----------------|
E|----0---------------------0--------------------------------|


play this 2 more times
e|-------3--------------|
B|-----3-3--------------|
G|-----2-0---2----------|
D|-2---0-0---2--2-------|
A|-2---0-----0--2-------|
E|-0------------0-------|


play this 4 more times
e|-----------------------------------------------------------|
B|-------------------------------------3---------------------|
G|-------------------------------------2---2-----------------|
D|--------------0--------2----------0--0---2-----------------|
A|----2---0-0h2----0-0h2----2---0h2----0---0-----------------|
E|----0---------------------0--------------------------------|

then solo(tryin to figure it out still)



2 more times
e|-------3--------------|
B|-----3-3--------------|
G|-----2-0---2----------|
D|-2---0-0---2--2-------|
A|-2---0-----0--2-------|
E|-0------------0-------|


play this until the end of the song
e|-----------------------------------------------------------|
B|-------------------------------------3---------------------|
G|-------------------------------------2---2-----------------|
D|--------------0--------2----------0--0---2-----------------|
A|----2---0-0h2----0-0h2----2---0h2----0---0-----------------|
E|----0---------------------0--------------------------------|
            
Submit corrections


        Cheap Wine & Cheaper Women lessons Hard to play? Try these video lessons and learn fast Cheap Wine & Cheaper Women lessons
        
↑ Back to top | Tablatures and chords for acoustic guitar and electric guitar, ukulele, drums are parodies/interpretations of the original songs. You may use it for private study, scholarship, research or language learning purposes only