» » »

Agua De Annique - Asleep Tabs

Artists:  A B C D E F G H I J K L M N O P Q R S T U V W X Y Z # 

Asleep Tabs

(ver. 1) Click to play this song!
Agua De Annique
 Rating:
4/5 (4 votes)
    Asleep lessons Tabs too difficult? Try these video lessons and learn fast
                E||--------------------------|--------------------------|
B||--------------------------|--------------------------|
G||--------2-----------2-----|--4-----------2-----------|
D||-----2-----2-----2-----2--|-----2-----2-----2-----2--|
A||--0-----------0-----------|--------0-----------0-----|
E||--------------------------|--------------------------|


--------------------------|--------------------------|
--------------------------|--------------------------|
--------------------------|--------------2-----------|
--------2-----------2-----|--4--------------2-----2--|
-----2-----2-----2-----2--|-----2-----2--------2-----|
--0-----------0-----------|--------0-----------------|
            
Submit corrections

↑ Back to top | Tablatures and chords for acoustic guitar and electric guitar, ukulele, drums are parodies/interpretations of the original songs. You may use it for private study, scholarship, research or language learning purposes only