» » »

A Great Big World - Say Something Tabs

Artists:  A B C D E F G H I J K L M N O P Q R S T U V W X Y Z # 

Say Something Tabs

(ver. 2) Click to play this song!
A Great Big World
 Rating:
4.3/5 (28 votes)

 Say Something lessons Tabs too difficult? Try these video lessons and learn fast
 
                [Intro]
(Pianissimo)
e|----------------------------------------|
B|-3--3--3--3-3--3--3--3--3--3--3--2--2h3-|
G|----------------------------------------|
D|---------------------------0------------|
A|---------------2-----------------0------|
E|---------------------3------------------|


[Chorus I]
(Piano)
e|----------------------------------------------------|
B|-3--3--3--3--3--3--2--2h3--3--3--3--3--3--3--2--2h3-|
G|----------------------------------------------------|
D|-------------0-------------------------0------------|
A|-2-----------------0-------2-----------------0------|
E|-------3-------------------------3------------------|

e|----------------------------------------------------|
B|-3--3--3--3--3--3--2--2h3--3--3--3--3--3--3--2--2h3-|
G|----------------------------------------------------|
D|-------------0-------------------------0------------|
A|-2-----------------0-------2-----------------0------|
E|-------3-------------------------3------------------|


[Chorus II]
(Crescendo)
e|------------------------------------------------|
B|-3--3--3--3--3--3--3--3--3--3--3--3--3--3--3--3-|
G|-2--2--2--2--2--2--2--2--2--2--2--2--2--2--2--2-|
D|-0-----------------------------------0----------|
A|-------------2-----------------------------0----|
E|-------------------------3----------------------|

e|------------------------------------------------|
B|-3--3--3--3--3--3--3--3--3--3--3--3--3--3--3--3-|
G|-2--2--2--2--2--2--2--2--2--2--2--2--2--2--2--2-|
D|-0-----------------------------------0----------|
A|-------------2-----------------------------0----|
E|-------------------------3----------------------|


[Chorus I]
(Crescendo)
e|----------------------------------------------------|
B|-3--3--3--3--3--3--2--2h3--3--3--3--3--3--3--2--2h3-|
G|----------------------------------------------------|
D|-------------0-------------------------0------------|
A|-2-----------------0-------2-----------------0------|
E|-------3-------------------------3------------------|

e|----------------------------------------------------|
B|-3--3--3--3--3--3--2--2h3--3--3--3--3--3--3--2--2h3-|
G|----------------------------------------------------|
D|-------------0-------------------------0------------|
A|-2-----------------0-------2-----------------0------|
E|-------3-------------------------3------------------|


[Chorus II]
(Piano=>Crescendo)
e|------------------------------------------------|
B|-3--3--3--3--3--3--3--3--3--3--3--3--3--3--3--3-|
G|-2--2--2--2--2--2--2--2--2--2--2--2--2--2--2--2-|
D|-0-----------------------------------0----------|
A|-------------2-----------------------------0----|
E|-------------------------3----------------------|

e|------------------------------------------------|
B|-3--3--3--3--3--3--3--3--3--3--3--3--3--3--3--3-|
G|-2--2--2--2--2--2--2--2--2--2--2--2--2--2--2--2-|
D|-0-----------------------------------0----------|
A|-------------2-----------------------------0----|
E|-------------------------3----------------------|


[Chorus I]
(Forte)
e|------------------------------------------------|
B|-3--3--3--3--3--3--3--3--3--3--3--3--3--3--3--3-|
G|-2--2--2--2--2--2--2--2--2--2--2--2--2--2--2--2-|
D|-------------0-----------------------0----------|
A|-2-----------------0-----2-----------------0----|
E|-------3-----------------------3----------------|

e|------------------------------------------------|
B|-3--3--3--3--3--3--3--3--3--3--3--3--3--3--3--3-|
G|-2--2--2--2--2--2--2--2--2--2--2--2--2--2--2--2-|
D|-------------0-----------------------0----------|
A|-2-----------------0-----2-----------------0----|
E|-------3-----------------------3----------------|


[Outro]
(Piano)
e|------------------------------------------|
B|-3--3--3--3--3--3--3--3--3--3--3--3-----3-|
G|-2--2--2--2--2--2--2--2--2--2--2--2-----2-|
D|-------------0--------------------------0-|
A|-2-----------------0-----2----------------|
E|-------3-----------------------3----------|

            
Submit corrections


        Say Something lessons Hard to play? Try these video lessons and learn fast Say Something lessons
        
↑ Back to top | Tablatures and chords for acoustic guitar and electric guitar, ukulele, drums are parodies/interpretations of the original songs. You may use it for private study, scholarship, research or language learning purposes only