» » »

A Great Big World - Say Something Tabs

Artists:  A B C D E F G H I J K L M N O P Q R S T U V W X Y Z # 

Say Something Tabs

(ver. 1) Click to play this song!
A Great Big World
 Rating:
4.3/5 (22 votes)

 Say Something lessons Tabs too difficult? Try these video lessons and learn fast
 
                STANDARD TUNING

CAPO ON 2nd FRET

CHORDS
       C     G     F     Am
e|-----0-----3-----1------0------|
b|-----1-----3-----1------1------|
g|-----0-----4-----2------2------|
d|-----2-----5-----3------2------|
a|-----2-----5-----3------0------|
E|-----0-----3-----1------0------|


[Intro]
e|---------------------------|
b|----1----1----1----1--1----|
g|---------------------------|
d|---------------------------|
a|----0----0----0----0--0----|
E|---------------------------|

e|------------------------------------------------------------------------------|
b|---------1--------------1--------------1--------------1-----------------------|
g|------------------------0-----------------------------0-----------------------|
d|------------------------------------------------------------------------------|
a|---------0--------------------------------------------------------------------|
E|---------------------------------------1--------------------------------------|
                       
e|------------------------------------------------------------------------------|
b|---------1--------------1--------------1--------------1-----------------------|
g|------------------------0-----------------------------0-----------------------|
d|------------------------------------------------------------------------------|
a|---------3--------------------------------------------------------------------|
E|---------------------------------------3--------------------------------------|



[Chorus]
e|------------------------------------------------------------------------------|
b|---------1--------------1--------------1--------------1-----------------------|
g|------------------------0-----------------------------0-----------------------|
d|------------------------------------------------------------------------------|
a|---------0--------------------------------------------------------------------|
E|---------------------------------------1--------------------------------------|
                          Say something, I'm   giving   up   on   you

e|------------------------------------------------------------------------------|
b|---------1--------------1--------------1--------------1-----------------------|
g|------------------------0-----------------------------0-----------------------|
d|------------------------------------------------------------------------------|
a|---------3--------------------------------------------------------------------|
E|---------------------------------------3--------------------------------------|



e|------------------------------------------------------------------------------|
b|---------1--------------1--------------1--------------1-----------------------|
g|------------------------0-----------------------------0-----------------------|
d|------------------------------------------------------------------------------|
a|---------0--------------------------------------------------------------------|
E|---------------------------------------1--------------------------------------|
                          I'll  be  the  one,  if  you  want  me  to

e|------------------------------------------------------------------------------|
b|---------1--------------1--------------1--------------1-----------------------|
g|------------------------0-----------------------------0-----------------------|
d|------------------------------------------------------------------------------|
a|---------3--------------------------------------------------------------------|
E|---------------------------------------3--------------------------------------|
 


e|------------------------------------------------------------------------------|
b|---------1--------------1--------------1--------------1-----------------------|
g|------------------------0-----------------------------0-----------------------|
d|------------------------------------------------------------------------------|
a|---------0--------------------------------------------------------------------|
E|---------------------------------------1--------------------------------------|
                          A-ny-where,    I   would've   followed you

e|------------------------------------------------------------------------------|
b|---------1--------------1--------------1--------------1-----------------------|
g|------------------------0-----------------------------0-----------------------|
d|------------------------------------------------------------------------------|
a|---------3--------------------------------------------------------------------|
E|---------------------------------------3--------------------------------------|
 


e|------------------------------------------------------------------------------|
b|---------1--------------1--------------1--------------1-----------------------|
g|------------------------0-----------------------------0-----------------------|
d|------------------------------------------------------------------------------|
a|---------0--------------------------------------------------------------------|
E|---------------------------------------1--------------------------------------|
                          Say something, I'm   giving   up   on   you

e|------------------------------------------------------------------------------|
b|---------1--------------1--------------1--------------1-----------------------|
g|------------------------0-----------------------------0-----------------------|
d|------------------------------------------------------------------------------|
a|---------3--------------------------------------------------------------------|
E|---------------------------------------3--------------------------------------|



[Verse 1]
                         
    C               G
And I am feeling so small

       F            
It was over my head

                  C         G
I know nothing at all

    C                  G
And I will stumble and fall

          F                
I'm still learning to love

                 C          G
Just starting to crawl



[Chorus]

Am             F                       C        G
Say something, I'm giving up on you

Am             F                       C        G
I'm sorry that I couldn't get to you

Am             F                       C        G
A-ny-where,    I would've followed you

Am             F                       C        G
Say something, I'm giving up on you



[Verse 2]

    C                 G
And I will swallow my pride

           F              
You're the one that I love

               C            G
And I'm saying goodbye



[Chorus]

Am             F                       C        G
Say something, I'm giving up on you

Am             F                       C        G
I'm sorry that I couldn't get to you

Am             F                       C        G
A-ny-where,    I would've followed you        Oh, oh, oh, oh 

Am             F                       C        G
Say something, I'm giving up on you

Am             F                       C        G
Say something, I'm giving up on you

Am             F                       C        G
Say something
            
Submit corrections


        Say Something lessons Hard to play? Try these video lessons and learn fast Say Something lessons
        
↑ Back to top | Tablatures and chords for acoustic guitar and electric guitar, ukulele, drums are parodies/interpretations of the original songs. You may use it for private study, scholarship, research or language learning purposes only