» » »

Agents Of Oblivion - Phantom Green Tabs

Artists:  A B C D E F G H I J K L M N O P Q R S T U V W X Y Z # 

Phantom Green Tabs

(ver. 2) Click to play this song!
Agents Of Oblivion
 Rating:
4/5 (4 votes)

 Phantom Green lessons Tabs too difficult? Try these video lessons and learn fast
 
                I finally figured out what the lead guitar plays it goes like this:

(listen to song for timing)

Intro/Verse:


Rhythym Guitar:
(With Tremolo Effects)

      A                  C              G          Fsh
e|------------------------------------------------------|
B|------------------------------------------------------|
G|------------------------------------------------------|
D|----7>----------------10>-------------5-----------4---|
A|----7>----------------10>-------------5-----------4---|
E|----5>-----------------8>-------------3-----------2---|


Lead Guitar:
(Some sort of Chorus and Overdrive effects)
(on the G and Fsh Chord figuration sections u have to play them fast)

               Am                C            G          Fsh
e|----------------------------------------------3--3--------2---|
B|---------------0h1---------------0h1-----------3--3---------2-|
G|-------------2---- 2-----------0-----0-------0-----------2----|
D|-----------2-----------------2--------------0-----------4-----|
A|---------0-----------------3----------------------------------|
E|-----------------------------------------3-----------2--------|


Chorus:
(Distortion)



      A                  C              G          Fsh
e|------------------------------------------------------|
B|------------------------------------------------------|
G|------------------------------------------------------|
D|----7>------------7---10>-------10----5-----------4---|
A|----7>------------7---10>-------10----5-----------4---|
E|----5>------------5----8>--------8----3-----------2---|



      A                  C              G          
e|------------------------------------------------------|
B|------------------------------------------------------|
G|------------------------------------------------------|
D|----7>------------7---10>-------10----5---------------|
A|----7>------------7---10>-------10----5---------------|
E|----5>------------5----8>--------8----3---------------|
            
Submit corrections


        Phantom Green lessons Hard to play? Try these video lessons and learn fast Phantom Green lessons
        
↑ Back to top | Tablatures and chords for acoustic guitar and electric guitar, ukulele, drums are parodies/interpretations of the original songs. You may use it for private study, scholarship, research or language learning purposes only