» » »

Agents Of Oblivion - Phantom Green Tabs

Artists:  A B C D E F G H I J K L M N O P Q R S T U V W X Y Z # 

Phantom Green Tabs

(ver. 1) Click to play this song!
Agents Of Oblivion
 Rating:
4/5 (4 votes)

 Phantom Green lessons Tabs too difficult? Try these video lessons and learn fast
 
                This is just the rhythym I'm sorry, not good enough to tab
the lead.

/-Slide
>-let notes ring for awhile


Intro/Verse: Played with Tremelo effects

e|-------------------------|
B|-------------------------|
G|-------------------------|
D|----7>----9>----6--5-----|
A|----7>----9>----6--5-----|
E|----5>----7>----4--3-----|

The intro and verse change every now and then to something like this

e|-------------------------|
B|-------------------------|
G|-------------------------|
D|----7>----9>----6--------|
A|----7>----9>----6--------|
E|----5>----7>----4--------|


Chorus: Played with distortion

e|-------------------------|
B|-------------------------|
G|-------------------------|
D|----7--7/--9--9---6--5---|
A|----7--7/--9--9---6--5---|
E|----5--5/--7--7---4--3---|

It's a possibility that it might be played like this but it's one of these two for sure

Intro/Verse: Played with Tremelo effects

e|-------------------------|
B|-------------------------|
G|-------------------------|
D|----5>----7>----4--3-----|
A|----5>----7>----4--3-----|
E|----3>----5>----2--1-----|

The intro and verse change every now and then to something like this

e|-------------------------|
B|-------------------------|
G|-------------------------|
D|----5>----7>----4--------|
A|----5>----7>----4--------|
E|----3>----5>----2--------|


Chorus: Played with distortion

e|-------------------------|
B|-------------------------|
G|-------------------------|
D|----5--5/--7--7---4--3---|
A|----5--5/--7--7---4--3---|
E|----3--3/--5--5---2--1---|

That's it for now if you have any corrections PLEASE...PLEASE don't hesitate its a reall 
            
Submit corrections


        Phantom Green lessons Hard to play? Try these video lessons and learn fast Phantom Green lessons
        
↑ Back to top | Tablatures and chords for acoustic guitar and electric guitar, ukulele, drums are parodies/interpretations of the original songs. You may use it for private study, scholarship, research or language learning purposes only