» » »

Agalloch - She Painted Fire Across The Skyline I Tabs

Artists:  A B C D E F G H I J K L M N O P Q R S T U V W X Y Z # 

She Painted Fire Across The Skyline I Tabs

(ver. 2) Click to play this song!
Agalloch
 Rating:
4/5 (4 votes)

 She Painted Fire Across The Skyline I lessons Tabs too difficult? Try these video lessons and learn fast
 
                Tuning: Standard (EADGBe)
Notes: Uh, there may be a wrong note or two in the solo. Other than that, it sounds correct to me. The order’s at the bottom; hope it isn’t too confusing.

Rhythm Fig. 1

  Am9               C
|-----------------|-----------------|
|-----0-----1-0---|-----------------|
|-------2-------2-|-----0-----0-----|
|---2-------------|---2---2-----2---|
|-0-------0-------|-3-------3-----0-|
|-----------------|-----------------|
  Am9               C
|-----------------|-----------------|
|-----0-----1-0---|-----------------|
|-------2-------2-|-----0-----0-----|
|---2-------------|---2---2---------|
|-0-------0-------|-3-------3---3-2-|
|-----------------|-----------------|

Rhythm Fig. 2

  A5                C5            
|-----------------|-----------------|
|-----------------|-----------------|
|-2-2-2-2-2-2-2-2-|-5-5-5-5-5-5-5-5-|
|-2-2-2-2-2-2-2-2-|-5-5-5-5-5-5-5-5-|
|-0-0-0-0-0-0-0-0-|-3-3-3-3-3-3-3-3-|
|-----------------|-----------------|
  A5                C5            B5
|-----------------|-----------------|
|-----------------|-----------------|
|-2-2-2-2-2-2-2-2-|-5-5-5-5-5-5-5-4-|
|-2-2-2-2-2-2-2-2-|-5-5-5-5-5-5-5-4-|
|-0-0-0-0-0-0-0-0-|-3-3-3-3-3-3-3-2-|
|-----------------|-----------------|

Rhythm Fig. 3 (steel string acoustic)

  Dm9               Fmaj7
|-----0-----1-0---|-----------------|
|-----------------|-----5-----5-----|
|---2---2-------2-|---5---5-----5---|
|-0-------0-------|-3-------3-----3-|
|-----------------|-----------------|
|-----------------|-----------------|
  Cadd9             G7
|-----------0-----|-1-----0---------|
|-----3-----------|-----------------|
|---0---0-----0---|---0-----0---0---|
|-----------------|-----------------|
|-3-------3-----3-|-----------------|
|-----------------|-----3-----3---3-|

Rhythm Fig. 4 (distorted electric)

  D5                F5            E5
|-----------------|-----------------|
|-----------------|-----------------|
|-7-7-7-7-7-7-7-7-|-5-5-5-5-5-5-5-4-|
|-7-7-7-7-7-7-7-7-|-3-3-3-3-3-3-3-2-|
|-5-5-5-5-5-5-5-5-|-3-3-3-3-3-3-3-2-|
|-----------------|-----------------|
  C5                  Gmaj(no5)
|-----------------|-----------------|
|-----------------|-----------------|
|-5-5-5-5-5-5-5-5-|-5-4-4-4-4-4-4-4-|
|-5-5-5-5-5-5-5-5-|-5-5-5-5-5-5-5-5-|
|-3-3-3-3-3-3-3-3-|-3-2-2-2-2-2-2-2-|
|-----------------|-----------------|

Solo (distorted electric)

-10h12-|-13p12p10h12---12b13~~~r12(10)----------------13-------12-------10---|
-------|------------------------------10-------------------------------------|
-------|-------------------------------------12-12s14----14s12----12s10----9-|
-------|---------------------------------------------------------------------|
-------|---------------------------------------------------------------------|
-------|---------------------------------------------------------------------|
  
|-------------------------------------------------------------------------------|
|-------------------------------------------------------------------------------|
|-9h10p9-7----7-----------------------------------------------------------------|
|----------10----10-9-7-9-9h10p9----7-------------------------------------------|
|--------------------------------10----10-8-7-7h8p7-5---5--7-5-3-3h5p3h5p3-2-///|
|-----------------------------------------------------8-------------------------|
 
|-12h13p12-10-12b13~~r12-12-10------------------------------------------|
|----------------------------------13bbbb~r-------------13-11-10---------10-|
|-------------------------------------------10v~-9-10-12--------12-11-12----|
|---------------------------------------------------------------------------|
|---------------------------------------------------------------------------|
|---------------------------------------------------------------------------|
  
|-10---------------------12h13h15p13p12-13--12--15p13p12-------------------|
|----11-10--------10--11--------------------------------15p13p12-----------|
|----------12-11-------------------------------------------------14--12h14-|
|--------------------------------------------------------------------------|
|--------------------------------------------------------------------------|
|--------------------------------------------------------------------------|

|----------------------------------------------------------------------------|
|-15p13p12-----------------13----13----13--/15----15----15--17----17----17---|
|----------14p12p10-9-9-10---12----12----12---12----12----12--16----16-------|
|------------------------------10----10---------12----12--------14----14-----|
|----------------------------------------------------------------------------|
|----------------------------------------------------------------------------|
                            
|-------------------17-19-21-b22---21-19-21b22r21--19-22-19-21--------------------|
|----------17-19-21--------------------------------------------22-19--------------|
|-16-18-20-----------------------------------------------------------21--18-------|
|---------------------------------------------------------------------------19-16-|
|---------------------------------------------------------------------------------|
|---------------------------------------------------------------------------------|
                    *Beginning of Bridge
|-------------------|------------------------------------
|-------------------|------------------------------------
|-------16-19----17-|------------------------------------
|-19----------------|-19~-(note sustains through bridge)-
|-------------------|------------------------------------
|-------------------|------------------------------------

Rhythm Fig. 5 (clean electric, reverb)
  Am                      Em
|-------------------------------------------------|
|-------------------------------------------------|
|-------------------------------------------------|
|-2-----2-----2-----2---------2-----2-----2-----2-|
|---3-----3-----3-----3-----2-----2-----2-----2---|
|-----5-----5-----5-----5-3-----3-----3-----3-----|

Rhythm Fig. 6 (clean electric)

|-------------------------------------------------|
|-------------------------------------------------|
|-------------------------------------------------|
|-2-----------------2---2-0-----------------------|
|-2-----------------2---2-2-----------------------|
|-------------------------------------------------|

Intro - Rhythm Fig. 1 x2
Verse 1 - Rhythm Fig. 1 and 2 x4
Chorus 1 - Rhythm Fig. 3 and 4 x2
Verse 2 - Rhythm Fig. 1 and 2 x4
Solo (with Rhythm Fig. 3 and 4)
Bridge - Rhythm Fig. 1 and 2 x2
Interlude - Rhythm Fig. 5 x2
Outro - Rhythm Fig. 5 and 6 x4
            
Submit corrections


        She Painted Fire Across The Skyline I lessons Hard to play? Try these video lessons and learn fast She Painted Fire Across The Skyline I lessons
        
↑ Back to top | Tablatures and chords for acoustic guitar and electric guitar, ukulele, drums are parodies/interpretations of the original songs. You may use it for private study, scholarship, research or language learning purposes only