» » »

Agalloch - Desolation Tabs

Artists:  A B C D E F G H I J K L M N O P Q R S T U V W X Y Z # 

Desolation Tabs

(ver. 1) Click to play this song!
Agalloch
 Rating:
4.2/5 (5 votes)

 Desolation lessons Tabs too difficult? Try these video lessons and learn fast
 
                Tuning: Standard (EADGBe)
Notes: I've tried to make this song as complete as possible (the rhythm isn't perfect, obviously). The actual recording has accordions playing harmony in the Rhythm Figures, and mandolins playing the Solos and Fills, but I've transcribed everything for guitar (acoustic sounds best). The song order is at the bottom. Have fun :-)

Rhythm Fig. 1

  Am                  G                   F(#11)    F         C         Em7
|---------|---------|---------|---------|---------|---------|-0--10-0-|---------|
|-1--11-1-|-1--11-1-|-3--33-3-|-3--33-3-|-0--00-0-|-1--11-1-|-1--11-1-|-3--33-3-|
|-2--22-2-|-2--22-2-|-4--44-4-|-4--44-4-|-2--22-2-|-2--22-2-|-0--00-0-|-0--00-0-|
|-2--22-2-|-2--22-2-|-5--55-5-|-5--55-5-|-3--33-3-|-3--33-3-|-2--22-2-|-2--22-2-|
|-0--00-0-|-0--00-0-|-5--55-5-|-5--55-5-|-3--33-3-|-3--33-3-|-3--33-3-|-2--22-2-|
|---------|---------|-3--33-3-|-3--33-3-|-1--11-1-|-1--11-1-|---------|-0--00-0-|

Rhythm Fig. 2

  Am        G         F         Am    A2  Am        G         F         Am    A2
|---------|---------|-1--11-1-|---------|---------|---------|-1--11-1-|---------|
|-1--11-1-|-3--33-3-|-1--11-1-|-1--11-0-|-1--11-1-|-3--33-3-|-1--11-1-|-1--11-0-|
|-2--22-2-|-4--44-4-|-2--22-2-|-2--22-2-|-2--22-2-|-4--44-4-|-2--22-2-|-2--22-0-|
|-2--22-2-|-5--55-5-|-3--33-3-|-2--22-2-|-2--22-2-|-5--55-5-|-3--33-3-|-2--22-2-|
|-0--00-0-|-5--55-5-|-3--33-3-|-0--00-0-|-0--00-0-|-5--55-5-|-3--33-3-|-0--00-0-|
|---------|-3--33-3-|-1--11-1-|---------|---------|-3--33-3-|-1--11-1-|---------|

Solo 1 (with Rhythm Fig. 1)
  Am              G                             F                 C        Em7
|-12-12---13-12---15-13-12----12-------------------------------12-12-13-12-12-15-16-|
|--------------------------15----13-12-------------12-13-13-15----------------------|
|---------------------------------------14--12--14----------------------------------|
|-----------------------------------------------------------------------------------|
|-----------------------------------------------------------------------------------|
|-----------------------------------------------------------------------------------|
  Am                     G                F                  
|-17---17----17-19-20-19-19-17-------17---------17---------------------------|
|---------17-------------------20-20------17h18----20-18-17-18-17------------|
|-----------------------------------------------------------------19-17-16---|
|----------------------------------------------------------------------------|
|----------------------------------------------------------------------------|
|----------------------------------------------------------------------------|
  C           Em7
|-------------------------|
|-------------------12----|
|-16h17-16-14-12-14----14-|
|-------------------------|
|-------------------------|
|-------------------------|

Verse Fill (with Rhythm Fig. 1)
  Am                G                 F                 C        Em7
|-17----17----17--|-15-----15-15----|--12h13-13-13-12-|------------15---|
|-----------------|-----------------|-13---13--13-----|-13-15p13-12--12-|
|-----------------|-----------------|-----------------|-----------------|
|-----------------|-----------------|-----------------|-----------------|
|-----------------|-----------------|-----------------|-----------------|
|-----------------|-----------------|-----------------|-----------------|
  Am                G                 F                 C         Em7
|-15h17----17-17--|-17h15--15--15-15|-12h13-13--13-12-|---12h13p12--15--|
|-------17--------|------15---------|----------13-----|-13--------15--17|
|-----------------|-----------------|-----------------|-----------------|
|-----------------|-----------------|-----------------|-----------------|
|-----------------|-----------------|-----------------|-----------------|
|-----------------|-----------------|-----------------|-----------------|
  Am                G                 F                 C       Em7
|--15--17------17-|-17h15--15--15-15|-15h13-13--13-12-|-12-13-12--12----|
|-15-------17-----|------15---15----|-----------------|---------15--15--|
|-----------------|-----------------|-----------------|-----------------|
|-----------------|-----------------|-----------------|-----------------|
|-----------------|-----------------|-----------------|-----------------|
|-----------------|-----------------|-----------------|-----------------|
Am                G                 F                 C       Em7
|-15h17--17-17-17-|-17h15--15-15-15-|-12h13-13-13-12--|---12h13p12--15--|
|------17---------|------15---------|---------------13|-13--------15--13|
|-----------------|-----------------|-----------------|-----------------|
|-----------------|-----------------|-----------------|-----------------|
|-----------------|-----------------|-----------------|-----------------|
|-----------------|-----------------|-----------------|-----------------|
Chorus Fill (with Rhythm Fig. 2)
 Am        G         F         Am       (Am)       G         F         Am
|17----17-|15-----15|15-13-12-|12----12-|15h17--17|17p15--15|13-12----|----15-17|
|---17----|---15----|---------|---13----|-----17--|-----15--|------13-|---------|
|---------|---------|---------|---------|---------|---------|---------|14-------|
|---------|---------|---------|---------|---------|---------|---------|---------|
|---------|---------|---------|---------|---------|---------|---------|---------|
|---------|---------|---------|---------|---------|---------|---------|---------|
 Am        G         F         Am       (Am)       G         F         Am
|17-----17|17p15--15|15-13-12-|---12----|15h17--17|17p15--15|15-13-12-|17----17-|
|--17-17--|-----17--|---------|---------|-----17--|-----15--|---------|---17----|
|---------|---------|---------|14----14-|---------|---------|---------|---------|
|---------|---------|---------|---------|---------|---------|---------|---------|
|---------|---------|---------|---------|---------|---------|---------|---------|
|---------|---------|---------|---------|---------|---------|---------|---------|
 Am        G         F         Am       (Am)       G         F         Am
|---17-17-|15-----15|15-13-12-|12----12-|15h17--17|17p15--15|13-12----|----17-17|
|17-------|---15----|---------|---13----|-----17--|-----15--|------13-|---------|
|---------|---------|---------|---------|---------|---------|---------|14-------|
|---------|---------|---------|---------|---------|---------|---------|---------|
|---------|---------|---------|---------|---------|---------|---------|---------|
|---------|---------|---------|---------|---------|---------|---------|---------|
 Am        G         F         Am       (Am)       G         F         Am
|17----17-|12-15--15|15-13-12-|---17----|15h17--17|17p15--15|13-12----|------17-|
|---17----|-----15--|---------|---------|-----17--|-----15--|------13-|---------|
|---------|---------|---------|14----14-|---------|---------|---------|14-------|
|---------|---------|---------|---------|---------|---------|---------|---------|
|---------|---------|---------|---------|---------|---------|---------|---------|
|---------|---------|---------|---------|---------|---------|---------|---------|

Solo 2 (with Rhythm Fig. 2)
    Am          G               F                 Am         (Am)
|---17--17--17--17-19-20-19-17-----------------------17-------17-19-20-19-17-|
|--17---------------------------17-18-17-15------------------17--------------|
|-14----------------------------------------17-16-14----14--14---------------|
|----------------------------------------------------------------------------|
|----------------------------------------------------------------------------|
|----------------------------------------------------------------------------|
  G             F             Am        (Am)             G
|--------------------------------15------17-19-20-19-19--19--15--12--|
|-17-18-17------15----------------------17---------------------------|
|-----------14------17--17-16-14----14-14----------------------------|
|--------------------------------------------------------------------|
|--------------------------------------------------------------------|
|--------------------------------------------------------------------|
  F              Am                  (Am)         G             F                 Am
|-13-12---12---12---12---12---12------17-19-20-19-17-19-15--------------------------|
|------15---13---12------------------17---------------------17--18-17-15------------|
|---------------------14---12---14--14----------------------------------17-16-17-14-|
|-----------------------------------------------------------------------------------|
|-----------------------------------------------------------------------------------|
|-----------------------------------------------------------------------------------|
  Am               G                  F                        Am
|---17-19-20-19-17----------------------------------------------------------|
|--17--------------17-17-18-17--15----15-13-12h13p12----12----------17------|
|-14-------------------------------17----------------14-----14-14--------14-|
|---------------------------------------------------------------------------|
|---------------------------------------------------------------------------|
|---------------------------------------------------------------------------|
  Am               G                   F                   Am
|---17-19-20-19-17------------------------------------------------------|
|--17--------------17-17-18-17--15-----15-----------------------17------|
|-14--------------------------------17-----17-16--14-12----14--------14-|
|-----------------------------------------------------------------------|
|-----------------------------------------------------------------------|
|-----------------------------------------------------------------------|
  Am           G           F                 Am  (Am)            G
|-17-----19-20-19-17-15-17------------------------17-17-19-20-19-17-19-15----|
|------17------------------17-18-17-15-----------17-----------------------17-|
|----14--------------------------------17-16-14-14---------------------------|
|----------------------------------------------------------------------------|
|----------------------------------------------------------------------------|
|----------------------------------------------------------------------------|
  F                 Am
|----------------------|
|-18-17-15-17----17----|
|-------------17----14-|
|----------------------|
|----------------------|
|----------------------|
Outro
  Am                G                 F                 Cadd9
|-----------------|-----------------|-------3-0-------|-----------3-----|
|-------0h1---1h3-|-------3s5---5s8-|-----1-----1-----|----------3------|
|-----2-----2-----|-----0-----0-----|---2---------2---|-------0-0-------|
|---2-------------|---0-------------|-3-------------3-|-2---2-----------|
|-0---------------|-----------------|-----------------|---3-----------3-|
|-----------------|-3---------------|-----------------|-----------------|
  G                 Am                G                 F
|-------------3---|-----------------|-----------------|-------3-0-------|
|------------3----|-------0h1---1h3-|-------3s5---5s8-|-----1-----1-----|
|-----------0-----|-----2-----2-----|-----0-----0-----|---2---------2---|
|-------0--0------|---2-------------|---0-------------|-3-------------3-|
|-2---2---2-------|-0---------------|-----------------|-----------------|
|---3-------------|-----------------|-3---------------|-----------------|
  Cadd9             G                 Em7
|-----------3-----|-------------3---|-----------------|-----------------|
|----------3------|------------3----|-------------3---|-----------------|
|-------0-0-------|-----------0-----|------------0----|-----------------|
|-2---2-----------|-------0--0------|------(0)--2-----|-----------------|
|---3-----------3-|-2---2---2-------|----(2)---2------|-----------------|
|-----------------|---3-----------1-|-0-0-0-0-0-------|-----------------|

Intro - Rhythm Fig. 1 x2
Verse 1 - Rhythm Fig. 1 x4
Chorus 1 - Rhythm Fig. 2 x2
Solo 1 - with Rhythm Fig. 1 x2
Verse 2 - Rhythm Fig. 1 x4 (with Verse Fill)
Chorus 2 - Rhythm Fig. 2 x4 (with Chorus Fill)
Solo 2 - with Rhythm Fig. 2 x4
Outro
            
Submit corrections


        Desolation lessons Hard to play? Try these video lessons and learn fast Desolation lessons
        
↑ Back to top | Tablatures and chords for acoustic guitar and electric guitar, ukulele, drums are parodies/interpretations of the original songs. You may use it for private study, scholarship, research or language learning purposes only