Home » A » Against The Current »

Against The Current - Thinking Tabs

Artists:  A B C D E F G H I J K L M N O P Q R S T U V W X Y Z # 

Thinking Tabs

(ver. 1) Click to play this song!
Against The Current
 Rating:
3.1/5 (24 votes)
                Tuning:
Intro
e|--------------------------------|
B|--------------------------------|
G|------4----6--------------------|
D|-2----4-x8-6-x8-7---------------|
A|-2-x8-2----4----7-x8------------|
E|-0--------------5---------------|
Verse
e|-------------------|
B|-------------------|
G|-------4-----------|
D|-2-----4-x4-7------|
A|-2-x12-2----7-x16--|
E|-0----------5------|
   x     x    x
Pre chorus 
e|-------------------|
B|-------------------|
G|-------------------|
D|-11----7----9------|
A|-11-x8-7-x8-9-x16--|
E|-9-----5----7------|
Chorus
e|-------------------------------------------|
B|-------------------------------------------|
G|------4----6---------------4---------------|
D|-2----4-x8-6-x8-7-----2----4-x8-4----7-----|
A|-2-x8-2----4----7-x8--2-x8-2----4-x8-7-x8--|
E|-0--------------5-----0---------2----5-----|            
Submit corrections

↑ Back to top | Tablatures and chords for acoustic guitar and electric guitar, ukulele, drums are parodies/interpretations of the original songs. You may use it for private study, scholarship, research or language learning purposes only