Home » A » Against The Current »

Against The Current - Something You Need Acoustic Tabs

Artists:  A B C D E F G H I J K L M N O P Q R S T U V W X Y Z # 

Something You Need Acoustic Tabs

(ver. 1) Click to play this song!
Against The Current
 Rating:
4/5 (4 votes)
                Tuning:Standard

Intro
e|---8-----------------------------------------------------------------------|
B|-9---9-9-13h14p13-11-9s8 9-----------------13h14p13-11-9-9-----------------|
G|---------------------------8h10p8------------------------------------------|
D|----------------------------------8h10p8-6---------------------------------|
A|---------------------------------------------------------------------------|
E|---------------------------------------------------------------------------|

Outro
e|---8-----------------------------------------------------------------------|
B|-9---9-9-13h14p13-11-9s8-9-----------------13h14p13-11-9 9-----------------|
G|---------------------------8h10p8------------------------------------------|
D|----------------------------------8h10p8-6---------------------------------|
A|---------------------------------------------------------------------------|
E|---------------------------------------------------------------------------|

e|---8-----------------11----------------------------------------------------|
B|-9---9 9-13h14p13-11----13-------------------------------------------------|
G|---------------------------------------------------------------------------|
D|---------------------------------------------------------------------------|
A|---------------------------------------------------------------------------|
E|---------------------------------------------------------------------------|
            
Submit corrections

↑ Back to top | Tablatures and chords for acoustic guitar and electric guitar, ukulele, drums are parodies/interpretations of the original songs. You may use it for private study, scholarship, research or language learning purposes only