» » »

Against The Current - Runaway Tabs

Artists:  A B C D E F G H I J K L M N O P Q R S T U V W X Y Z # 

Runaway Tabs

(ver. 1) Click to play this song!
Against The Current
 Rating:
4.3/5 (26 votes)
    Runaway  lessons Tabs too difficult? Try these video lessons and learn fast
                [Intro]
e|--8---8---8-8-8-10-------|-8-8-8-8------|--8-8-8-8-10----------|
B|----9-----------------10-|---------11-10|-------------10-10----|
G|-------------------10----|--------------|----------------------|
D|-------------------------|--------------|----------------------|
A|-------------------------|--------------|----------------------|
E|-------------------------|--------------|----------------------|

e|--8---8---8-8-8-10-------|-8-8-8-8-------|
B|----9-----------------10-|---------11-10-|
G|-------------------10----|---------------|
D|-------------------------|---------------|
A|-------------------------|---------------|
E|-------------------------|---------------|

[Verse]
e|--------------------------------|---------------------------------|
B|-----------13-------------------|----------10---------------------|
G|-10-10-10-------10-11-10-9-10-7-|-10-10-10-----10-10-10--12-7-10--|
D|--------------------------------|---------------------------------|
A|--------------------------------|---------------------------------|
E|--------------------------------|---------------------------------|

e|-----------------------------------------|-------------------------------------------|
B|------------------13-13-13-13-13---------|-----------------------10------------------|
G|-10--10-10-10-10------------------9-10-7-|-10--10-10-10-10-10-10-----12-10-10-12-7---|
D|-----------------------------------------|-------------------------------------------|
A|-----------------------------------------|-------------------------------------------|
E|-----------------------------------------|-------------------------------------------|

e|---------|--------------------------------|-----------------------|
B|---------|--------------------------------|-----------------------|
G|--10-12--|-10-10-10-10--10----10-10-10----|-10-10-10---10-10-10-12|
D|---------|-----------------10----------10-|----------10-----------|
A|---------|--------------------------------|-----------------------|
E|---------|--------------------------------|-----------------------|

e|------------------------|--------------------8----|----------------------------|
B|--10-10-10----------10--|--10-10-10------------12-|----------------------------|
G|-----------12-12-12-----|-----------12-12-12------|-10-10-10-10-------10-10-10-|
D|------------------------|-------------------------|-------------10-10----------|
A|------------------------|-------------------------|----------------------------|
E|------------------------|-------------------------|----------------------------|

e|-----------------------------|-----------------------------|-------------------------------|
B|-----------------------------|--10-10-10-------------------|-10-10-10----------------------|
G|--10-10-10----------10-10-10-|-----------12-12-12--10-10-10|----------12-12-12--10-10-10---|
D|-----------10-10-10----------|-----------------------------|-------------------------------|
A|-----------------------------|-----------------------------|-------------------------------|
E|-----------------------------|-----------------------------|-------------------------------|

[Chorus]
e|--8---8---8-8-8-10-------|-8-8-8-8------|--8-8-8-8-10----------|
B|----9-----------------10-|---------11-10|-------------10-10----|
G|-------------------10----|--------------|----------------------|
D|-------------------------|--------------|----------------------|
A|-------------------------|--------------|----------------------|
E|-------------------------|--------------|----------------------|

e|--8---8---8-8-8-10-------|-8-8-8-8-------|--------------------|-------------------|
B|----9-----------------10-|---------11-10-|--------10----------|-------10----------|
G|-------------------10----|---------------|--12-12----12-10-10-|-12-12---12-10-10--|
D|-------------------------|---------------|--------------------|-------------------|
A|-------------------------|---------------|--------------------|-------------------|
E|-------------------------|---------------|--------------------|-------------------|

[Outro]
e|----------------------------------------------------|-------------------------|
B|-10-11-10-11-10------10-11-10-11-10-----------------|---10-11-10-11-10--------|
G|----------------10-7----------------10-7--10---10-9-|-7----------------10-7-7-|
D|----------------------------------------------------|-------------------------|
A|----------------------------------------------------|-------------------------|
E|----------------------------------------------------|-------------------------|

e|----------------------|----------------------|------------8------------------|
B|-10-11-10-11-10-------|--10-11-10-11-10------|10-11-10-11---10----10---------|
G|----------------10-7-7|----------------10-7--|-----------------9----9--------|
D|----------------------|----------------------|------------------------10-----|
A|----------------------|----------------------|-------------------------------|
E|----------------------|----------------------|-------------------------------|            
Submit corrections

↑ Back to top | Tablatures and chords for acoustic guitar and electric guitar, ukulele, drums are parodies/interpretations of the original songs. You may use it for private study, scholarship, research or language learning purposes only