Home » A » Against The Current »

Against The Current - Paralyzed Tabs

Artists:  A B C D E F G H I J K L M N O P Q R S T U V W X Y Z # 

Paralyzed Tabs

(ver. 1) Click to play this song!
Against The Current
 Rating:
4.3/5 (23 votes)
                [Intro]

(1st guitar)
e|------------------------|------------------------|------------------------|------------------------|
B|------------------------|------------------------|------------------------|------------------------|
G|---------------7--------|------------------------|---------------7--------|------------------------| x2
D|------------------------|------------------7--5--|------------------------|------------------5~----|
A|-7----7--5--7-----7--5--|-7----7-----------------|-7----7--5--7-----7--5--|-7----7-----------------|
E|------------------------|---------5--5--7--------|------------------------|---------5--5--4--------|

(2nd guitar)

Em  Em   C   G/B D  


[Verse]

         Em                            C                             G   D
Have you had a million reasons why you wish you'd never seen the truth?
         Em                             C                           G   D
Have you looked into the mirror and the problem's staring back at you?
        Em                                  C
I can't control myself, don't know who I've been
                G                         D
And who is this monster wearing my skin?
           Em                            C
A movie in black and white, when will it end?
                    G             D
'Cause every time I scream no one hears me


[Chorus]
         
                  Em               C         
e|------------------------|------------------------|
B|-8-----8-----8-----8----|-8-----8-----8-----8----|
G|----7-----7-----7-----7-|----5-----5-----5-----5-|
D|------------------------|------------------------|
A|------------------------|------------------------|
E|------------------------|------------------------|
   It feels like I'm paralyzed, and I can't

                G                 D
e|------------------------|------------------------|
B|-8-----8-----8-----8----|-10----10----10----10---|
G|----7-----7-----7-----7-|----7-----7-----7-----7-|
D|------------------------|------------------------|
A|------------------------|------------------------|
E|------------------------|------------------------| 
  Escape from the prison I'm living in

               Em           C    
e|------------------------|------------------------|
B|-8-----8-----8-----8----|-8-----8-----8-----8----|
G|----7-----7-----7-----7-|----5-----5-----5-----5-|
D|------------------------|------------------------|
A|------------------------|------------------------|
E|------------------------|------------------------|
   I'm naming the voices in my head 

             G                  D
e|------------------------|------------------------|
B|-8-----8-----8-----8----|-10----10----10----10---|
G|----7-----7-----7-----7-|----7-----7-----7-----7-|
D|------------------------|------------------------|
A|------------------------|------------------------|
E|------------------------|------------------------| 
  They keep on telling me to give in

                  Asus7                    G/B                    
e|-15-15-15-14-14-14----14-|
B|-------------------15----|
G|-------------------------| x3
D|-------------------------|
A|-------------------------| 
E|-------------------------| 
But it's making me stronger, fight a little longer,

          C                D 
I'm gonna bring me back to life, And I won't be paralyzed


[Interlude] 

        Em 
e|------------------------|
B|------------------------|
G|---------------7--------|
D|------------------------|
A|-7----7--5--7-----7--5--|
E|------------------------|


[Verse]

         Em                                   C                          G     D
Have you searched for something deeper out of fear that life's a lonely road?
         Em                                C                           G     D    
Have you roamed the darkest corners of the earth until you're just a ghost?
        Em                                  C
I can't control myself, don't know who I've been
                G                         D
And who is this monster wearing my skin?
           Em                            C
A movie in black and white, when will it end?
                    G             D
'Cause every time I scream no one hears me


[Chorus]
         
                  Em               C         
e|------------------------|------------------------|
B|-8-----8-----8-----8----|-8-----8-----8-----8----|
G|----7-----7-----7-----7-|----5-----5-----5-----5-|
D|------------------------|------------------------|
A|------------------------|------------------------|
E|------------------------|------------------------|
   It feels like I'm paralyzed, and I can't

                G                 D
e|------------------------|------------------------|
B|-8-----8-----8-----8----|-10----10----10----10---|
G|----7-----7-----7-----7-|----7-----7-----7-----7-|
D|------------------------|------------------------|
A|------------------------|------------------------|
E|------------------------|------------------------| 
  Escape from the prison I'm living in

               Em           C    
e|------------------------|------------------------|
B|-8-----8-----8-----8----|-8-----8-----8-----8----|
G|----7-----7-----7-----7-|----5-----5-----5-----5-|
D|------------------------|------------------------|
A|------------------------|------------------------|
E|------------------------|------------------------|
   I'm naming the voices in my head 

             G                  D
e|------------------------|------------------------|
B|-8-----8-----8-----8----|-10----10----10----10---|
G|----7-----7-----7-----7-|----7-----7-----7-----7-|
D|------------------------|------------------------|
A|------------------------|------------------------|
E|------------------------|------------------------| 
  They keep on telling me to give in

                  Asus7                    G/B                    
e|-15-15-15-14-14-14----14-|
B|-------------------15----|
G|-------------------------| x3
D|-------------------------|
A|-------------------------| 
E|-------------------------| 
But it's making me stronger, fight a little longer,

          C                D 
I'm gonna bring me back to life, And I won't be paralyzed



[Bridge]
       
C                                     Em                   Dsus/G        
 I'm not afraid I can face my demons, even if they tear me down
     C                                              Dsus/G
If I fall, let me fall, it might take time but I'll find my own way out
                  Em              C
It feels like I'm paralyzed, and I can't
                G                D
Escape from the prison I'm living in 


[Chorus]
         
                  Em               C         
e|------------------------|------------------------|
B|-8-----8-----8-----8----|-8-----8-----8-----8----|
G|----7-----7-----7-----7-|----5-----5-----5-----5-|
D|------------------------|------------------------|
A|------------------------|------------------------|
E|------------------------|------------------------|
   It feels like I'm paralyzed, and I can't

                G                 D
e|------------------------|------------------------|
B|-8-----8-----8-----8----|-10----10----10----10---|
G|----7-----7-----7-----7-|----7-----7-----7-----7-|
D|------------------------|------------------------|
A|------------------------|------------------------|
E|------------------------|------------------------| 
  Escape from the prison I'm living in

               Em           C    
e|------------------------|------------------------|
B|-8-----8-----8-----8----|-8-----8-----8-----8----|
G|----7-----7-----7-----7-|----5-----5-----5-----5-|
D|------------------------|------------------------|
A|------------------------|------------------------|
E|------------------------|------------------------|
   I'm naming the voices in my head 

             G                  D
e|------------------------|------------------------|
B|-8-----8-----8-----8----|-10----10----10----10---|
G|----7-----7-----7-----7-|----7-----7-----7-----7-|
D|------------------------|------------------------|
A|------------------------|------------------------|
E|------------------------|------------------------| 
  They keep on telling me to give in

                  Asus7                    G/B                    
e|-15-15-15-14-14-14----14-|
B|-------------------15----|
G|-------------------------| x3
D|-------------------------|
A|-------------------------| 
E|-------------------------| 
But it's making me stronger, fight a little longer,

          C                D 
I'm gonna bring me back to life, And I won't be paralyzed

                  Em               C         
e|------------------------|------------------------|
B|-8-----8-----8-----8----|-8-----8-----8-----8----|
G|----7-----7-----7-----7-|----5-----5-----5-----5-|
D|------------------------|------------------------|
A|------------------------|------------------------|
E|------------------------|------------------------|
   It feels like I'm paralyzed, and I can't

                G                 D
e|------------------------|------------------------|
B|-8-----8-----8-----8----|-10----10----10----10---|
G|----7-----7-----7-----7-|----7-----7-----7-----7-|
D|------------------------|------------------------|
A|------------------------|------------------------|
E|------------------------|------------------------| 
  Escape from the prison I'm living in

               Em           C    
e|------------------------|------------------------|
B|-8-----8-----8-----8----|-8-----8-----8-----8----|
G|----7-----7-----7-----7-|----5-----5-----5-----5-|
D|------------------------|------------------------|
A|------------------------|------------------------|
E|------------------------|------------------------|
   I'm naming the voices in my head 

             G                  D
e|------------------------|------------------------|
B|-8-----8-----8-----8----|-10----10----10----10---|
G|----7-----7-----7-----7-|----7-----7-----7-----7-|
D|------------------------|------------------------|
A|------------------------|------------------------|
E|------------------------|------------------------| 
  They keep on telling me to give in

                  Asus7                    G/B                    
e|-15-15-15-14-14-14----14-|
B|-------------------15----|
G|-------------------------| x3
D|-------------------------|
A|-------------------------| 
E|-------------------------| 
But it's making me stronger, fight a little longer,

          C                D 
I'm gonna bring me back to life, And I won't be paralyzed


[Outro]

e|------------------------|------------------------|------------------------|
B|------------------------|------------------------|------------------------|
G|------------------------|---------------7--------|------------------------| 
D|------------------5~----|------------------------|------------------5~----|
A|-7----7--5--------------|-7----7--5--7-----7--5--|-7----7-----------------|
E|------------5--7--------|------------------------|---------5--5--4--------|            
Submit corrections

↑ Back to top | Tablatures and chords for acoustic guitar and electric guitar, ukulele, drums are parodies/interpretations of the original songs. You may use it for private study, scholarship, research or language learning purposes only