» » »

Against The Current - Infinity Tabs

Artists:  A B C D E F G H I J K L M N O P Q R S T U V W X Y Z # 

Infinity Tabs

(ver. 1) Click to play this song!
Against The Current
 Rating:
4.3/5 (21 vote)
    Infinity  lessons Tabs too difficult? Try these video lessons and learn fast
                [Intro]
Rhythm
e|-3-----3--3-----3-----------|
B|-3-----3--3-----3-----------|
G|-0-x3--2--0-----0-----------|x3
D|-2-----0--2-x4--x-x4--------|
A|-3-----0--2-----2-----------|
E|----------0-----------------|

Lead 
e|--------------15-x24--17-x8--15-x12--14-x4--10-x8--------------------------|
B|-8-x32--------------------------------------------10-x4--8-x4--------------|
G|-7-------------------------------------------------------------------------|
D|---------------------------------------------------------------------------|
A|---------------------------------------------------------------------------|
E|---------------------------------------------------------------------------|
PM *

[Verse]
Rhythm 
  
e|-------------------------|        e|----------------------|
B|-------------------------|        B|----------------------|
G|-------------------------|x3      G|----------------------|
D|-------------------------|        D|----------------------|
A|-3-x5--5--7-x4--2-x4-----|        A|-3-x5--7-x2--5-x9-----|
E|-------------------------|        E|----------------------|
PM *     *  *     *                 PM *     *     *

Lead
e|----------------|
B|-8-x8-----------|
G|-7--------------|
D|----------------|x8
A|----------------|
E|----------------|
PM *  

[Pre Chorus]

Rhythm 
e|-3-----3--3-----3-----------|
B|-3-----3--3-----3-----------|
G|-0-x3--2--0-----0-----------|x4
D|-2-----0--2-x4--x-x4--------|
A|-3-----0--2-----2-----------|
E|----------0-----------------|

Lead
e|-15-x24--17-x8--15-x12--14-x4--10-x8--------------|
B|-------------------------------------10-x4--8-x4--|
G|--------------------------------------------------|
D|--------------------------------------------------|x2
A|--------------------------------------------------|
E|--------------------------------------------------|

[Chorus]

Rhythm
e|----------------------------------|
B|----------------------------------|
G|-5-------7-----------7------------|
D|-5-x13---7-x3--2-----7-x8---------|x2
A|-3-------5-----2-x8--5------------|
E|---------------0------------------|

Lead 

e|---------------------10-x3--15--14--10---7-----5----------|
B|-8-x3--10-x3--12-x3----------------------8-x8--7-x8-------|
G|-----------------------------------------9-----7----------|x2
D|----------------------------------------------------------|
A|----------------------------------------------------------|
E|----------------------------------------------------------|

[Post Chorus thing]

Rhythm 

e|-3-----3--3-----3-----------|
B|-3-----3--3-----3-----------|
G|-0-x3--2--0-----0-----------|x2
D|-2-----0--2-x4--x-x4--------|
A|-3-----0--2-----2-----------|
E|----------0-----------------|            
Submit corrections

↑ Back to top | Tablatures and chords for acoustic guitar and electric guitar, ukulele, drums are parodies/interpretations of the original songs. You may use it for private study, scholarship, research or language learning purposes only