Home » A » Against The Current »

Against The Current - Forget Me Now Tabs

Artists:  A B C D E F G H I J K L M N O P Q R S T U V W X Y Z # 

Forget Me Now Tabs

(ver. 1) Click to play this song!
Against The Current
 Rating:
4.3/5 (24 votes)
                Main Riff (with delay)
e|---------------------------------------------------------------------------|
B|---16---15---------15---13-------------------------------------------------|
G|---------------------------------------------------------------------------|
D|---------------------------------------------------------------------------|
A|---------------------------------------------------------------------------|
E|---------------------------------------------------------------------------|

Intro (rhythm)

e|---------------------------------------------------------------------------|
B|---------------------------------------------------------------------------|
G|---8-------3-------------------------8--------3----------------------------|
D|---8-------3-------5-------3---------8--------3-------5--------------------|
A|---6-------1-------5-------3---------6--------1-------5--------------------|
E|-------------------3-------1--------------------------3--------------------|

Verse
Rhythm 

e|---------------------------------------------------------------------------|
B|---------------------------------------------------------------------------|
G|---------------------------------------------------------------------------|
D|--8-8-8-3-3-3-3-3-----------------8-8-8-3-3-3-3-3--------------------------|
A|--6-6-6-1-1-1-1-1-5-5-5-3-3-3-3-3-6-6-6-1-1-1-1-1-5-5-5-5-5-5-5-5----------|
E|------------------3-3-3-1-1-1-1-1-----------------3-3-3-3-3-3-3-3----------|
 PM * * * * * * * * * * * * * * * * * * * * * * * * * * * * * * * *

Lead

e|---------------------------------------------------------------------------|
B|---16---15---------15---13-----------16---15----------13-------------------|
G|---------------------------------------------------------------------------|
D|---------------------------------------------------------------------------|
A|---------------------------------------------------------------------------|
E|---------------------------------------------------------------------------|
 
Last bar before Chorus

e|-----------------------------------------|
B|---13--11------13--11------13--11--------|
G|-----------10----------10----------------|
D|-----------------------------------------|
A|-----------------------------------------|
E|-----------------------------------------|

Chorus
Rhythm

e|---------------------------------------------------------------------------|
B|---------------------------------------------------------------------------|
G|---8-------3-------------------------8--------3----------------------------|
D|---8-------3-------5-------3---------8--------3-------5--------------------|
A|---6-------1-------5-------3---------6--------1-------5--------------------|
E|-------------------3-------1--------------------------3--------------------|

Lead

e|---------------------------------------------------------------------------|
B|---16---15---------15---13-----------16---15----------13-------------------|
G|---------------------------------------------------------------------------|
D|---------------------------------------------------------------------------|
A|---------------------------------------------------------------------------|
E|---------------------------------------------------------------------------|            
Submit corrections

↑ Back to top | Tablatures and chords for acoustic guitar and electric guitar, ukulele, drums are parodies/interpretations of the original songs. You may use it for private study, scholarship, research or language learning purposes only