Home » A » Against The Current »

Against The Current - Chasing Ghosts Tabs

Artists:  A B C D E F G H I J K L M N O P Q R S T U V W X Y Z # 

Chasing Ghosts Tabs

(ver. 1) Click to play this song!
Against The Current
 Rating:
4.3/5 (19 votes)
                [Intro]
[guitar 1]
e|------------------|------------------|-----5--------5---|-----2--------2---|
B|-----2--------2---|-----5--------5---|---7---7----7---7-|---3---3----3---3-|
G|---2---2----2---2-|---6---6----6---6-|-7--------7-------|-4--------4-------|
D|-4--------4-------|-7--------7-------|------------------|------------------| 
A|------------------|------------------|------------------|------------------|
D|------------------|------------------|------------------|------------------|

[guitar 2]
e|------------------|------------------|-----5-7-9----7-5-|-----5-7-9-12-9---|
B|------------------|------------------|---7--------------|---7--------------|
G|------------------|------------------|------------------|------------------|
D|------------------|------------------|------------------|------------------|
A|------------------|------------------|------------------|------------------|
D|------------------|------------------|------------------|------------------|

[Verse 1]
[guitar 1]
e|------------------|------------------|-----5--------5---|-----2--------2---|
B|-----2--------2---|-----5--------5---|---7---7----7---7-|---3---3----3---3-|
G|---2---2----2---2-|---6---6----6---6-|-7--------7-------|-4--------4-------| 2x
D|-4--------4-------|-7--------7-------|------------------|------------------| 
A|------------------|------------------|------------------|------------------|
D|------------------|------------------|------------------|------------------|

[guitar 2]
e|------------------|------------------|-----5-7-9----7-5-|-----5-7-9-12-9---|
B|------------------|------------------|---7--------------|---7--------------|
G|------------------|------------------|------------------|------------------|
D|------------------|------------------|------------------|------------------|
A|------------------|------------------|------------------|------------------|
D|------------------|------------------|------------------|------------------|

[Pre-chorus 1]
[guitar 1]
e|------------------|------------------|------------------|------------------|
B|------------------|------------------|------------------|------------------|
G|------------------|------------------|------------------|------------------| 
D|-0----------------|-4--------2-------|-0----------------|-4--------2-------|
A|-0----------------|-4--------2-------|-0----------------|-4--------2-------|
D|-0----------------|-4--------2-------|-0----------------|-4--------2-------|

[guitar 1]
e|------------------|------------------|------------------|------------------|
B|------------------|------------------|------------------|------------------|
G|------------------|------------------|-4----------------|-6----------------| 
D|-0----------------|-4--------2-------|-4----------------|-6----------------|
A|-0----------------|-4--------2-------|-2----------------|-4----------------|
D|-0----------------|-4--------2-------|------------------|------------------|

[guitar 2]
e|------------------|------------------|-----2--------2---|-4----------------|
B|-----2--------2---|-----2--------0---|---3---3----3---3-|-5----------------|
G|---2---2----2---2-|---2---2----1---1-|-4--------4-------|-6----------------|
D|-0--------0-------|-4--------2-------|------------------|------------------|
A|------------------|------------------|------------------|------------------|
D|------------------|------------------|------------------|------------------|

[Chorus]
e|-----------------|-----------------|-----------------|-----------------|
B|-----------------|-----------------|-----------------|-----------------|
G|-----------------|-7-7-7-7-7-7-7-7-|-----------------|-----------------| 2x
D|-4-4-4-4-4-4-4-4-|-7-7-7-7-7-7-7-7-|-7-7-7-7-7-7-7-7-|-2-2-2-2-2-2-2-2-|
A|-4-4-4-4-4-4-4-4-|-5-5-5-5-5-5-5-5-|-7-7-7-7-7-7-7-7-|-2-2-2-2-2-2-2-2-|
D|-4-4-4-4-4-4-4-4-|-----------------|-7-7-7-7-7-7-7-7-|-2-2-2-2-2-2-2-2-|

e|-----------------|-----------------|-----------------|-----------------|
B|-----------------|-----------------|-----------------|-----------------|
G|-----------------|-7-7-7-7-7-7-7-7-|-----------------|-----------------|
D|-4-4-4-4-4-4-4-4-|-7-7-7-7-7-7-7-7-|-7-7-7-7-7-7-7-7-|-2~--------------|
A|-4-4-4-4-4-4-4-4-|-5-5-5-5-5-5-5-5-|-7-7-7-7-7-7-7-7-|-2~--------------|
D|-4-4-4-4-4-4-4-4-|-----------------|-7-7-7-7-7-7-7-7-|-2~--------------|

[Verse 2]
(Repeat verse 1)

[Pre-chorus 2]
[guitar 1]
e|------------------|------------------|------------------|------------------|
B|------------------|------------------|------------------|------------------|
G|------------------|------------------|------------------|------------------| 
D|-0----------------|-4--------2-------|-0----------------|-4--------2-------|
A|-0----------------|-4--------2-------|-0----------------|-4--------2-------|
D|-0----------------|-4--------2-------|-0----------------|-4--------2-------|

[guitar 1]
e|------------------|------------------|------------------|------------------|
B|------------------|------------------|------------------|------------------|
G|------------------|------------------|-4----------------|-6----------------| 
D|-0----------------|-4--------2-------|-4----------------|-6----------------|
A|-0----------------|-4--------2-------|-2----------------|-4----------------|
D|-0----------------|-4--------2-------|------------------|------------------|

[guitar 2]
e|------------------|------------------|-----2--------2---|-----4--------4---|
B|-----2--------2---|-----2--------0---|---3---3----3---3-|---5---5----5---5-|
G|---2---2----2---2-|---2---2----1---1-|-4--------4-------|-6--------6-------|
D|-0--------0-------|-4--------2-------|------------------|------------------|
A|------------------|------------------|------------------|------------------|
D|------------------|------------------|------------------|------------------|

[Chorus 2]
e|-----------------|-----------------|-----------------|-----------------|
B|-----------------|-----------------|-----------------|-----------------|
G|-----------------|-7-7-7-7-7-7-7-7-|-----------------|-----------------| 4x
D|-4-4-4-4-4-4-4-4-|-7-7-7-7-7-7-7-7-|-7-7-7-7-7-7-7-7-|-2-2-2-2-2-2-2-2-|
A|-4-4-4-4-4-4-4-4-|-5-5-5-5-5-5-5-5-|-7-7-7-7-7-7-7-7-|-2-2-2-2-2-2-2-2-|
D|-4-4-4-4-4-4-4-4-|-----------------|-7-7-7-7-7-7-7-7-|-2-2-2-2-2-2-2-2-|

[Pre-chorus 3]
[guitar 1]
e|------------------|------------------|------------------|------------------|
B|------------------|------------------|------------------|------------------|
G|------------------|------------------|------------------|------------------| 
D|-0----------------|-4--------2-------|-0----------------|-4--------2-------|
A|-0----------------|-4--------2-------|-0----------------|-4--------2-------|
D|-0----------------|-4--------2-------|-0----------------|-4--------2-------|

[guitar 1]
e|------------------|------------------|------------------|------------------|
B|------------------|------------------|------------------|------------------|
G|------------------|------------------|-4--------6-------|-7--------9-------| 
D|-0----------------|-4--------2-------|-4--------6-------|-7--------9-------|
A|-0----------------|-4--------2-------|-2--------4-------|-5--------7-------|
D|-0----------------|-4--------2-------|------------------|------------------|

[Guitar 2]
e|------------------|------------------|-----2--------4---|-----5----7~------|
B|-----2--------2---|-----2--------0---|---3---3----5---5-|---7---7--9~------|
G|---2---2----2---2-|---2---2----1---1-|-4--------6-------|-7--------9~------|
D|-0--------0-------|-4--------2-------|------------------|------------------|
A|------------------|------------------|------------------|------------------|
D|------------------|------------------|------------------|------------------|

(Repeat Chorus 2)

[Outro]
e|------------------|
B|------------------|
G|------------------|
D|-4~---------------|
A|-4~---------------|
D|-4~---------------|
            
Submit corrections

↑ Back to top | Tablatures and chords for acoustic guitar and electric guitar, ukulele, drums are parodies/interpretations of the original songs. You may use it for private study, scholarship, research or language learning purposes only