» » »

Against Me! - You Look Like I Need A Drink Tabs

Artists:  A B C D E F G H I J K L M N O P Q R S T U V W X Y Z # 

You Look Like I Need A Drink Tabs

(ver. 1) Click to play this song!
Against Me!
 Rating:
4.3/5 (19 votes)

 You Look Like I Need A Drink lessons Tabs too difficult? Try these video lessons and learn fast
 
                [Chords] : 

    Bm  A   G
e|--2---0---3--|
B|--3---2---3--|
G|--4---2---0--|
D|--4---2---0--|
A|--2---0---2--|
E|----------3--|


[Intro]

e|-----------------------------------3-|-3-3-3-3--3-3-3-3--3-3----3-3----3-3----3-3---------|
B|-----------------------------------3-|-3-3-3-3--3-3-3-3--3-3----3-3----3-3----3-3---------|
G|---------2-------------------------0-|-0-0-0-0--0-0-0-0--0-0----0-0----0-0----0-0---------|
D|-----4---4-2-4-2-0-2-4-2-0-------0-0-|-0-0-0-0--0-0-0-0--0-0----0-0----0-0----0-0--4-2-0--|
A|-2-5---5-5-0---------------2-5-2---2-|-2-2-2-2--2-2-2-2--2-2--2-2-2--2-2-2--2-2-2---------|
E|-----------------------------------3-|-3-3-3-3--3-3-3-3-------3------3------3-------------|

[Bm riff] : 

e|---2-2---2-2---2-2-----|---2-2---2-2---2-2------|---2-2---2-2---2-2--|
B|---3-3---3-3---3-3-----|---3-3---3-3---3-3------|---3-3---3-3---3-3--|
G|---4-4---4-4---4-4-----|---4-4---4-4---4-4------|---4-4---4-4---4-4--| 
D|---4-4---4-4---4-4-----|---4-4---4-4---4-4------|---4-4---4-4---4-4--|
A|-2-----------2---------|-2-----------2----------|-2-----------2------|
E|-------2-----------2-5-|-------2------------2-5-|-------2------------|
     
[A riff] :

e|---0-0---0-0---0-0---0-0--|
B|---2-2---2-2---2-2---2-2--|
G|---2-2---2-2---2-2---2-2--| 
D|---2-2---2-2---2-2---2-2--|
A|-0-----------0------------|
E|-------0-----------0------|

[G riff] :  

e|---3-3---3-3---3-3------|
B|---3-3---3-3---3-3------|
G|---0-0---0-0---0-0------| 
D|---0-0---0-0---0-0------|
A|-2-----------2----------|
E|-------3-----------5-3--|

            
Submit corrections


        You Look Like I Need A Drink lessons Hard to play? Try these video lessons and learn fast You Look Like I Need A Drink lessons
        
↑ Back to top | Tablatures and chords for acoustic guitar and electric guitar, ukulele, drums are parodies/interpretations of the original songs. You may use it for private study, scholarship, research or language learning purposes only