Home » A » Against Me! »

Against Me! - Rebecca Tabs

Artists:  A B C D E F G H I J K L M N O P Q R S T U V W X Y Z # 

Rebecca Tabs

(ver. 1) Click to play this song!
Against Me!
[Intro]
e|-----------------------------------------------12-|
B|-12-14p12-14p12-14p12--------14p12-14p12-14p12----|
G|----------------------14--------------------------|
D|-------------------------14-----------------------|
A|--------------------------------------------------|
E|--------------------------------------------------|

e|--------------------------------12---|
B|-14p12-14p12-14p12--------14---------|
G|-------------------14--------14------|
D|----------------------14-------------|
A|-------------------------------------|
E|-------------------------------------|

[Verse]
e|-----------------------------------------------------------------|
B|-----------------------------------------------------------------|
G|-----------------------------------------------------------------|
D|-7-7-7-7-7-7-7-7-7-7-7-7-7-7-7-7-7-7-7-7-7-7-7-7-7-7-7-7-7-7-7-7-|
A|-7-7-7-7-7-7-7-7-7-7-7-7-7-7-7-7-7-7-7-7-7-7-7-7-7-7-7-7-7-7-7-7-|
E|-5-5-5-5-5-5-5-5-5-5-5-5-5-5-5-5-5-5-5-5-5-5-5-5-5-5-5-5-5-5-5-5-|

e|-----------------------------------------------------------------|
B|-----------------------------------------------------------------|
G|-----------------7-7-7-7-7-7-7-7---------------------------------|
D|-4-4-4-4-4-4-4-4-7-7-7-7-7-7-7-7-7-7-7-7-7-7-7-7-7-7-7-7-7-7-7-7-|
A|-4-4-4-4-4-4-4-4-5-5-5-5-5-5-5-5-7-7-7-7-7-7-7-7-7-7-7-7-7-7-7-7-|
E|-2-2-2-2-2-2-2-2-----------------5-5-5-5-5-5-5-5-5-5-5-5-5-5-5-5-|

e|------------------------------------------------------------------|
B|------------------------------------------------------------------|
G|-----------------7-7-7-7-7-7-7-7-----------------7-7-7-7-7-7-7-7--|
D|-4-4-4-4-4-4-4-4-7-7-7-7-7-7-7-7-7-7-7-7-4-4-4-4-7-7-7-7-7-7-7----|
A|-4-4-4-4-4-4-4-4-5-5-5-5-5-5-5-5-7-7-7-7-4-4-4-4-5-5-5-5-5-5-5-5--|
E|-2-2-2-2-2-2-2-2-----------------5-5-5-5-2-2-2-2------------------|

e|--------------------------------------------------|
B|--------------------------------------------------|
G|-----------------7-7-7-7-7-7-7-7-7-7-7-7-7-7-7-7--|
D|-7-7-7-7-4-4-4-4-7-7-7-7-7-7-7-7-7-7-7-7-7-7-7-7--|
A|-7-7-7-7-4-4-4-4-5-5-5-5-5-5-5-5-5-5-5-5-5-5-5-5--|
E|-5-5-5-5-2-2-2-2----------------------------------|

[Chorus]
e|-----------------------------------------------------------------|
B|-----------------------------------------------------------------|
G|-----------------------------------------------------------------|
D|-7-7-7-7-7-7-7-7-7-7-7-7-7-7-7-7-7-7-7-7-7-7-7-7-7-7-7-7-7-7-7-7-|
A|-7-7-7-7-7-7-7-7-7-7-7-7-7-7-7-7-7-7-7-7-7-7-7-7-7-7-7-7-7-7-7-7-|
E|-5-5-5-5-5-5-5-5-5-5-5-5-5-5-5-5-5-5-5-5-5-5-5-5-5-5-5-5-5-5-5-5-|

e|-----------------------------------------------------------------|
B|-----------------------------------------------------------------|
G|-7-7-7-7-7-7-7-7-7-7-7-7-7-7-7-7-7-7-7-7-7-7-7-7-7-7-7-7-7-7-7-7-|
D|-7-7-7-7-7-7-7-7-7-7-7-7-7-7-7-7-7-7-7-7-7-7-7-7-7-7-7-7-7-7-7-7-|
A|-5-5-5-5-5-5-5-5-5-5-5-5-5-5-5-5-5-5-5-5-5-5-5-5-5-5-5-5-5-5-5-5-|
E|-----------------------------------------------------------------|   x2

[Instrumental]
e|-----------------------------------------------12-|
B|-12-14p12-14p12-14p12--------14p12-14p12-14p12----|
G|----------------------14--------------------------|
D|-------------------------14-----------------------|
A|--------------------------------------------------|
E|--------------------------------------------------|

e|--------------------------------12---|
B|-14p12-14p12-14p12--------14---------|
G|-------------------14--------14------|
D|----------------------14-------------|
A|-------------------------------------|
E|-------------------------------------|

[Verse]
e|-----------------------------------------------------------------|
B|-----------------------------------------------------------------|
G|-----------------------------------------------------------------|
D|-7-7-7-7-7-7-7-7-7-7-7-7-7-7-7-7-7-7-7-7-7-7-7-7-7-7-7-7-7-7-7-7-|
A|-7-7-7-7-7-7-7-7-7-7-7-7-7-7-7-7-7-7-7-7-7-7-7-7-7-7-7-7-7-7-7-7-|
E|-5-5-5-5-5-5-5-5-5-5-5-5-5-5-5-5-5-5-5-5-5-5-5-5-5-5-5-5-5-5-5-5-|

e|-----------------------------------------------------------------|
B|-----------------------------------------------------------------|
G|-----------------7-7-7-7-7-7-7-7---------------------------------|
D|-4-4-4-4-4-4-4-4-7-7-7-7-7-7-7-7-7-7-7-7-7-7-7-7-7-7-7-7-7-7-7-7-|
A|-4-4-4-4-4-4-4-4-5-5-5-5-5-5-5-5-7-7-7-7-7-7-7-7-7-7-7-7-7-7-7-7-|
E|-2-2-2-2-2-2-2-2-----------------5-5-5-5-5-5-5-5-5-5-5-5-5-5-5-5-|

e|------------------------------------------------------------------|
B|------------------------------------------------------------------|
G|-----------------7-7-7-7-7-7-7-7-----------------7-7-7-7-7-7-7-7--|
D|-4-4-4-4-4-4-4-4-7-7-7-7-7-7-7-7-7-7-7-7-4-4-4-4-7-7-7-7-7-7-7----|
A|-4-4-4-4-4-4-4-4-5-5-5-5-5-5-5-5-7-7-7-7-4-4-4-4-5-5-5-5-5-5-5-5--|
E|-2-2-2-2-2-2-2-2-----------------5-5-5-5-2-2-2-2------------------|

e|--------------------------------------------------|
B|--------------------------------------------------|
G|-----------------7-7-7-7-7-7-7-7-7-7-7-7-7-7-7-7--|
D|-7-7-7-7-4-4-4-4-7-7-7-7-7-7-7-7-7-7-7-7-7-7-7-7--|
A|-7-7-7-7-4-4-4-4-5-5-5-5-5-5-5-5-5-5-5-5-5-5-5-5--|
E|-5-5-5-5-2-2-2-2----------------------------------|

[Chorus]
e|-----------------------------------------------------------------|
B|-----------------------------------------------------------------|
G|-----------------------------------------------------------------|
D|-7-7-7-7-7-7-7-7-7-7-7-7-7-7-7-7-7-7-7-7-7-7-7-7-7-7-7-7-7-7-7-7-|
A|-7-7-7-7-7-7-7-7-7-7-7-7-7-7-7-7-7-7-7-7-7-7-7-7-7-7-7-7-7-7-7-7-|
E|-5-5-5-5-5-5-5-5-5-5-5-5-5-5-5-5-5-5-5-5-5-5-5-5-5-5-5-5-5-5-5-5-|

e|-----------------------------------------------------------------|
B|-----------------------------------------------------------------|
G|-7-7-7-7-7-7-7-7-7-7-7-7-7-7-7-7-7-7-7-7-7-7-7-7-7-7-7-7-7-7-7-7-|
D|-7-7-7-7-7-7-7-7-7-7-7-7-7-7-7-7-7-7-7-7-7-7-7-7-7-7-7-7-7-7-7-7-|
A|-5-5-5-5-5-5-5-5-5-5-5-5-5-5-5-5-5-5-5-5-5-5-5-5-5-5-5-5-5-5-5-5-|
E|-----------------------------------------------------------------|   x2

[Bridge]
e|-------------------------------------------------------------|
B|-------------------------------------------------------------|
G|------------9--9-9-9-9-9-9-9-9-------------7--7-7-7-7-7-7-7--|
D|-7--7--7-7--9--9-9-9-9-9-9-9-9--7--7--7-7--7--7-7-7-7-7-7-7--|
A|-7--7--7-7--7--7-7-7-7-7-7-7-7--7--7--7-7--5--5-5-5-5-5-5-5--|
E|-5--5--5-5----------------------5--5--5-5--------------------|

e|-----------------------------------------------------------------|
B|-----------------------------------------------------------------|
G|------------9--9-9-9-9-9-9-9-9--7-7-7-7-7-7-7-7-7-7-7-7-7-7-7-7--|
D|-7--7--7-7--9--9-9-9-9-9-9-9-9--7-7-7-7-7-7-7-7-7-7-7-7-7-7-7-7--|
A|-7--7--7-7--7--7-7-7-7-7-7-7-7--5-5-5-5-5-5-5-5-5-5-5-5-5-5-5-5--|
E|-5--5--5-5-------------------------------------------------------|   x2

[Chorus]
e|-----------------------------------------------------------------|
B|-----------------------------------------------------------------|
G|-----------------------------------------------------------------|
D|-7-7-7-7-7-7-7-7-7-7-7-7-7-7-7-7-7-7-7-7-7-7-7-7-7-7-7-7-7-7-7-7-|
A|-7-7-7-7-7-7-7-7-7-7-7-7-7-7-7-7-7-7-7-7-7-7-7-7-7-7-7-7-7-7-7-7-|
E|-5-5-5-5-5-5-5-5-5-5-5-5-5-5-5-5-5-5-5-5-5-5-5-5-5-5-5-5-5-5-5-5-|

e|-----------------------------------------------------------------|
B|-----------------------------------------------------------------|
G|-7-7-7-7-7-7-7-7-7-7-7-7-7-7-7-7-7-7-7-7-7-7-7-7-7-7-7-7-7-7-7-7-|
D|-7-7-7-7-7-7-7-7-7-7-7-7-7-7-7-7-7-7-7-7-7-7-7-7-7-7-7-7-7-7-7-7-|
A|-5-5-5-5-5-5-5-5-5-5-5-5-5-5-5-5-5-5-5-5-5-5-5-5-5-5-5-5-5-5-5-5-|
E|-----------------------------------------------------------------|   x2

[Outro]
e|-----------------------------------5--5--5--5--5--5--5-----|
B|-----------------------------------8--8--8--8--8--8--8-----|
G|------------9--9-9-9-9-9-9-9--7----7--7--7--7--7--7--7-----|
D|-7--7--7-7--9--9-9-9-9-9-9-9--7----7--7--7--7--7--7--7--7--|
A|-7--7--7-7--7--7-7-7-7-7-7-7--5----5--5--5--5--5--5--5--7--|
E|-5--5--5-5----------------------------------------------5--|            
Submit corrections

↑ Back to top | Tablatures and chords for acoustic guitar and electric guitar, ukulele, drums are parodies/interpretations of the original songs. You may use it for private study, scholarship, research or language learning purposes only