Home » A » Against Me! »

Against Me! - Cavalier Eternal Bass

Artists:  A B C D E F G H I J K L M N O P Q R S T U V W X Y Z # 

Cavalier Eternal Bass

(ver. 1) Click to play this song!
Against Me!
Song title:Cavalier Eternal
Tuning: Standard
_____________________________________________________________________________


Intor
 G|------------------------------------|
 D|------------------------------------|
 A|------------------------------------|
 E|--55-55-55-55-12/-Quick-Slide-Down--|


Chorus One
 G|-------------------------------------------------------------------|
 D|-------------------------------------------------------------------|
 A|-----55-------------77-77----55----------77-----------55-77--------|
 E|--55----55-55-55-55-------55----55-55-55----5-4-22-22-------55-5---|
 

Vers One
 G|-------------------------------------------------------------------|
 D|---------------------------------------------------------6h7-6-----|
 A|-0-2-4-55-55-------------77-7-------------22-22-55-55-77-------7-5-|
 E|-------------55-55-77-77------0-1-2-22-22--------------------------|


Chorus Two
 G|-------------------------------------------------------------------|
 D|-------------------------------------------------------------------|
 A|-----55-------------77-77----55----------77-----------55-77--------|
 E|--55----55-55-55-55-------55----55-55-55----5-4-22-22-------55-5---|


Vers Two
 G|-------------------------------------------------------------------|
 D|-------------------------------------------------------------------|
 A|--0-2-4-55-55-------------77-7-------------22-22-55-55-7-Ring------|
 E|--------------55-55-77-77------0-1-2-22-22-------------------------|


Chorus Three
 G|-------------------------------------------------------------------|
 D|-------------------------------------------------------------------|
 A|-----55-------------77-77----55----------77-----------5---7--------|
 E|--55----55-55-55-55-------55----55-55-55----5-4-22-22---------5----|


 END

(It is a really easy song. I had fun tabbing it, I hope you have fun playing it!)  
            
Submit corrections

↑ Back to top | Tablatures and chords for acoustic guitar and electric guitar, ukulele, drums are parodies/interpretations of the original songs. You may use it for private study, scholarship, research or language learning purposes only