Home » A » Against Me! »

Against Me! - 333 Tabs

Artists:  A B C D E F G H I J K L M N O P Q R S T U V W X Y Z # 

333 Tabs

(ver. 1) Click to play this song!
Against Me!
[Intro]

e|---------------------------------------------------------------------------|
B|---------------------------------------------------------------------------|
G|---------------------------------------------------------------------------|
D|--2-2-2-2-2-2-2-2-2----2-2-2-2-2-2-2-2-2-----------------------------------|
A|--0-0-4-0-4-4-0-4-4----0-0-4-0-4-4-4-4-4-----------------------------------|
E|------------------5--------------------5-----------------------------------|

e|---------------------------------------------------------------------------|
B|---------------------------------------------------------------------------|
G|---------------------------------------------------------------------------|
D|--2-2-2-2-2-2-2-2-4--------------------------------------------------------|
A|--0-0-4-0-4-4-0-4-4--------------------------------------------------------|
E|---------------------------------------------------------------------------|

Whole part X2            
Submit corrections

↑ Back to top | Tablatures and chords for acoustic guitar and electric guitar, ukulele, drums are parodies/interpretations of the original songs. You may use it for private study, scholarship, research or language learning purposes only