Home » A » Aerzte »

Aerzte - Onprangering Tabs

Artists:  A B C D E F G H I J K L M N O P Q R S T U V W X Y Z # 

Onprangering Tabs

(ver. 1) Click to play this song!
Aerzte
Artist - die Ärzte
Song   - Onprangering
Album  - Runter mit den Spendierhosen, Unsichtbarer!

ONPRANGERING


Intro:
E|----------------------------------------------------------------------|
B|----------------------------------------------------------------------|
G|----------------------------------------------------------------------|
D|-------------------------------------0—0/0—-0-0-0/0---0-0/0--0-0-0/0--|
A|--3—3/3—-3-3-3/3-0--3—3/3—-3-3-3/3-0----------------0-----------------|
E|----------------------------------------------------------------------|

E|----------------------------------------------------------------------|
B|----------------------------------------------------------------------|
G|----------------------------------------------------------------------|
D|----------------------------------------------------------------------|
A|--0/3—---------------0/3----------------0--3-3/3--3-3-3/3-0-3---------|
E|------3-3/3--3-3-3/3-----3-3/3--3-3-3/3-------------------------------|

[Background with Bongos]

Mein Genital tut furchtbar weh, immer dann, wenn ich p**sé
Das kommt wohl vom Geschlechtsverkehr, ich schätze mal ich hab Tripper

Chorus:              
[------------------][Intro starts]
Und Das prangere ich an, das stelle ich zur Diskussion 
Irgendwer ist schuld daran, dass ich nicht mehr pinkeln kann,
und das prangere ich an
[--------------------------]  [Intro starts]
Ich hab’ mich schrecklich aufgeregt, weil mir das Essen nicht mehr schmeckt
d.h. ich bin total kaputt, und mindestens hab’ ich Skorbut

Chorus:
Und das prangere ich an, das verurteile ich scharf
Es darf nicht sein, was leider ist – ich glaub’ ich werde Fatalist
Und das prangere ich an

Meine Finger fallen aus, ich muss sofort ins Krankenhaus
Bevor mein Lebenslicht erlischt: die Lepra hat mich schwer erwischt

Chorus:
Und das prangere ich an, das find ich wirklich unerhört
Ich bin entsetzt, ich bin empört, weil irgendjemand zerstört
Und das prangere ich an

Chorus:
Und das prangere ich an, das find ich überhaupt nicht gut
Lepra, Tripper und Skorbut, ich bin dagegen, absolut
Und das prangere ich an

Solo:
E|--------------1-0----------1---0/1-0-0--1/1-0------1/1-0-------1-----0-|
B|-1-1-3-1---1-----1---0-3-1----------3---------3-1-------3/3-1----3/3---|
G|-----------------------------------------------------------------------|
D|-----------------------------------------------------------------------|
A|-----------------------------------------------------------------------|
E|-----------------------------------------------------------------------|

E|-0--1-0---1-1-1-0--1---1-1-0------------3-1--...----let it fade--------|
B|--3--3------------3----------3-1/0/3--1--------------------------------|
G|-----------------------------------------------------------------------|
D|-----------------------------------------------------------------------|
A|-----------------------------------------------------------------------|
E|-----------------------------------------------------------------------|


See you,   Jann
            
Submit corrections

↑ Back to top | Tablatures and chords for acoustic guitar and electric guitar, ukulele, drums are parodies/interpretations of the original songs. You may use it for private study, scholarship, research or language learning purposes only