Home » A » Aerzte »

Aerzte - Saufen Tabs

Artists:  A B C D E F G H I J K L M N O P Q R S T U V W X Y Z # 

Saufen Tabs

(ver. 1) Click to play this song!
Aerzte
Super Lied, super Text!!!

INTRO (clean)

E------0-----0-----0------0-----0-----0--0------------------
H------1-----1-----1------1-----1-----1--1------------------
G--------------------------------------------------------------
D--------------------------------------------------------------
A---3-----------3------------3-----------3-----0-2-----------
E---------3-----------3------------3---------3---------------


VERSE
E------0-----0-----0-----0------
H------1-----1-----1-----1------
G-------------------------------
D-------------------------------
A---3-----------3---------------
E---------3-----------3---------
"Ich und meine Kumpels...

e------3-----3-----3-----3------
h------3-----3-----3-----3------
g-------------------------------
d-------------------------------
a---------5-----------5---------
e---3-----------3---------------
"wir sind ein...

E------0-----0-----0-----0------
H------1-----1-----1-----1------
G-------------------------------
D-------------------------------
A---3-----------3---------------
E---------3-----------3---------
"Vernichtungsmaschin ...

E------1-----1-----1-----1------
H------1-----1-----1-----1------
G-------------------------------
D-------------------------------
A---------3-----------3---------
E---1-----------1---------------
"alle machen mit...

e------3-----3-----3-----3------
h------3-----3-----3-----3------
g-------------------------------
d-------------------------------
a---------5-----------5---------
e---3-----------3---------------
"wenn wir dann...



Ab hier werden nur ein paar Barrégriffe gespielt:
    C   G   F   D   A   G
E-------------------------------
H-------------------------------
G-----------5-----------7-------
D---5-------3---7-------5-------
A---3---5-------5---7-----------
E-------3-----------5-----------

           C                                 G
Komm wir grölen noch ein bisschen, ...
                                    C
Komm wir singen übers Saufen, ...
                                      F            
Von dem ständigen Gebrülle kriegt ...
               G                             C
Wenn wir dann was gesoffen haben, ...


           D                                 A
Komm wir grölen noch ein bisschen, ...
                                    D
Komm wir singen übers Saufen, ...
                                      G            
Von dem ständigen Gebrülle kriegt ...
               A                             D
Wenn wir dann was gesoffen haben, ...
            
Submit corrections

↑ Back to top | Tablatures and chords for acoustic guitar and electric guitar, ukulele, drums are parodies/interpretations of the original songs. You may use it for private study, scholarship, research or language learning purposes only