» » »

Adventure Time - Theme Song Bass

Artists:  A B C D E F G H I J K L M N O P Q R S T U V W X Y Z # 

Theme Song Bass

(ver. 1) Click to play this song!
Adventure Time
 Rating:
3.9/5 (24 votes)

 Theme Song  lessons Tabs too difficult? Try these video lessons and learn fast
 
                         Intro                                                     
     S    W                   W                   W                 
G||----|-------------------|-------------------|-------------------|
D||----|-------------------|-------------------|-------------------|
A||----|-------------------|--5----------------|--3----------------|
E||----|--3----------------|-------------------|-------------------|


                      Riff                                            
  W                   Q    E  Q    E  E  E     Q    E  Q    E  E  E   
-------------------|------------------------|------------------------|
-------------------|------------------------|------------------------|
--5----------------|------------------------|--5----5--5----5--5--5--|
-------------------|--3----3--3----3--3--3--|------------------------|


                           Outro                                        
  Q    E  Q    E  E  E     Q     E  Q    E  Q       H        H          
------------------------|------------------------|--------------------||
------------------------|------------------------|--------------------||
--3----3--3----3--3--3--|--5-----5--5----5--5----|--------------------||
------------------------|------------------------|--3-----------------||            
Submit corrections


        Theme Song  lessons Hard to play? Try these video lessons and learn fast Theme Song  lessons
        
↑ Back to top | Tablatures and chords for acoustic guitar and electric guitar, ukulele, drums are parodies/interpretations of the original songs. You may use it for private study, scholarship, research or language learning purposes only