» » »

Adventure Time - Theme Song Tabs

Artists:  A B C D E F G H I J K L M N O P Q R S T U V W X Y Z # 

Theme Song Tabs

(ver. 1) Click to play this song!
Adventure Time
 Rating:
1.9/5 (27 votes)

 Theme Song  lessons Tabs too difficult? Try these video lessons and learn fast
 
                
Guitarra #1:


          Intro                                                     
          G                   D                   C                 
          ^                   ^                   ^                 
     S    W                   W                   W                 
E||----|--3----------------|--2----------------|--0----------------|
B||----|--3----------------|--3----------------|--1----------------|
G||----|--0----------------|--2----------------|--0----------------|
D||----|--0----------------|--0----------------|--2----------------|
A||----|--2----------------|-------------------|--3----------------|
E||----|--3----------------|-------------------|-------------------|


                      Riff                                            
  D                   G                        D                      
  ^                   ^    ^  v    v  ^  v     ^    ^  v    v  ^  v   
  W                   Q    E  Q    E  E  E     Q    E  Q    E  E  E   
--2----------------|--3----3--3----3--3--3--|--2----2--2----2--2--2--|
--3----------------|--3----3--3----3--3--3--|--3----3--3----3--3--3--|
--2----------------|--0----0--0----0--0--0--|--2----2--2----2--2--2--|
--0----------------|--0----0--0----0--0--0--|--0----0--0----0--0--0--|
-------------------|--2----2--2----2--2--2--|------------------------|
-------------------|--3----3--3----3--3--3--|------------------------|


                           Outro                                         
  C                        D                         G                   
  ^    ^  v    v  ^  v     ^     ^  v    v  ^  v     ^                   
  Q    E  Q    E  E  E     Q     E  Q    E  E  E     H        H          
--0----0--0----0--0--0--|--2-----2--2----2--2--2--|--3-----------------||
--1----1--1----1--1--1--|--3-----3--3----3--3--3--|--3-----------------||
--0----0--0----0--0--0--|--2-----2--2----2--2--2--|--0-----------------||
--2----2--2----2--2--2--|--0-----0--0----0--0--0--|--0-----------------||
--3----3--3----3--3--3--|-------------------------|--2-----------------||
------------------------|-------------------------|--3-----------------||




Guitarra #2: (NASHVILLE TUNING OR CAPO IN 12 FRET)  


          Intro 
                              
          G                                        D                 
          ^                                        ^                 
     S    W                                        W                 
E||----|--3-------------------------------------|-------------------|
B||----|--0-------------------------------------|--3----------------|
G||----|--0-------------------------------------|--2----------------|
D||----|--0-------------------------------------|--4----------------|
A||----|--2-------------------------------------|--5----------------|
E||----|--3-------------------------------------|-------------------|


                                          Riff                   
  C                   D                   G                      
  ^                   ^                   ^    ^  v    v  ^  v   
  W                   W                   Q    E  Q    E  E  E   
--0----------------|-------------------|--3----3--3----3--3--3--|
--1----------------|--3----------------|--0----0--0----0--0--0--|
--0----------------|--2----------------|--0----0--0----0--0--0--|
--2----------------|--4----------------|--0----0--0----0--0--0--|
--3----------------|--5----------------|--2---------------------|
-------------------|-------------------|--3---------------------|


                                                    Outro                   
  D                        C                        D                       
  ^    ^  v    v  ^  v     ^    ^  v    v  ^  v     ^     ^  v    v  ^  v   
  Q    E  Q    E  E  E     Q    E  Q    E  E  E     Q     E  Q    E  E  E   
------------------------|--0----0--0----0--0--0--|-------------------------|
--3----3--3----3--3--3--|--1----1--1----1--1--1--|--3-----3--3----3--3--3--|
--2----2--2----2--2--2--|--0----0--0----0--0--0--|--2-----2--2----2--2--2--|
--4----4--4----4--4--4--|--2----2--2----2--2--2--|--4-----4--4----4--4--4--|
--5----5--5----5--5--5--|--3---------------------|--5-----5--5----5--5--5--|
------------------------|------------------------|-------------------------|


  G                   
  ^                   
  H        H          
--3-----------------||
--0-----------------||
--0-----------------||
--0-----------------||
--2-----------------||
--3-----------------||




Guitarra #3:


          Intro                                                     
          G                   D                   C                 
          ^                   ^                   ^                 
     S    W                   W                   W                 
E||----|--3----------------|-------------------|--0----------------|
B||----|--0----------------|--3----------------|--1----------------|
G||----|--0----------------|--2----------------|--0----------------|
D||----|--0----------------|--4----------------|--2----------------|
A||----|--2----------------|--5----------------|--3----------------|
E||----|--3----------------|-------------------|-------------------|


                      Riff                                            
  D                   G                        D                      
  ^                   ^    ^  v    v  ^  v     ^    ^  v    v  ^  v   
  W                   Q    E  Q    E  E  E     Q    E  Q    E  E  E   
-------------------|--3----3--3----3--3--3--|------------------------|
--3----------------|--0----0--0----0--0--0--|--3----3--3----3--3--3--|
--2----------------|--0----0--0----0--0--0--|--2----2--2----2--2--2--|
--4----------------|--0----0--0----0--0--0--|--4----4--4----4--4--4--|
--5----------------|--2---------------------|--5----5--5----5--5--5--|
-------------------|--3---------------------|------------------------|


                           Outro                                        
  C                        D                        G                   
  ^    ^  v    v  ^  v     ^     ^  v    v  ^       ^                   
  Q    E  Q    E  E  E     Q     E  Q    E  Q       H        H          
--0----0--0----0--0--0--|------------------------|--3-----------------||
--1----1--1----1--1--1--|--3-----3--3----3--3----|--0-----------------||
--0----0--0----0--0--0--|--2-----2--2----2--2----|--0-----------------||
--2----2--2----2--2--2--|--4-----4--4----4--4----|--0-----------------||
--3---------------------|--5-----5--5----5--5----|--2-----------------||
------------------------|------------------------|--3-----------------||



Keyboard:


          Intro                                                     
     S    W                   W                   W                 
E||----|-------------------|-------------------|-------------------|
B||----|-------------------|-------------------|-------------------|
G||----|-------------------|-------------------|-------------------|
D||----|-------------------|-------------------|-------------------|
A||----|-------------------|-------------------|-------------------|
E||----|-------------------|-------------------|-------------------|


                      Riff                                  
  W                   W                   W                 
-------------------|-------------------|-------------------|
-------------------|-------------------|-------------------|
-------------------|-------------------|-------------------|
-------------------|-------------------|-------------------|
-------------------|-------------------|-------------------|
-------------------|-------------------|-------------------|


                        Outro                                    
   W                    W                    Q    H.             
--12----------------|--14----------------|--15-----------------||
--13----------------|--15----------------|--15-----------------||
--12----------------|--14----------------|--12-----------------||
--14----------------|---0----------------|--12-----------------||
--15----------------|--------------------|---2-----------------||
---0----------------|--------------------|---3-----------------||




- Voice Melody: (English)


          Intro                                           
                It's...Adven   ture Time...      C' mon,  
     S    S     S            S E.   E.      Q    E  S     
E||----|-------------------------------------------------|
B||----|-----------------------8----8---------------7----|
G||----|--------7------------L-------------------7-------|
D||----|-----------------------5----5---------------4----|
A||----|--------5------------L-------------------5-------|
E||----|-------------------------------------------------|


       Grab   Your   Frie ends    We'll    Go   To   Ve   ry    
  S E  S    S S    S E    E.   E  E        Q    Q    Q    Q     
----------------------------------------|----------------------|
--L-L-----------------------------------|----------------------|
-------9----L-7----L-9s---7-------4-----|--5----4--------------|
--L-L-----------------------------------|------------7----5----|
-------7----L-5----L-7s---5-------2-----|--3----2--------------|
----------------------------------------|------------5----3----|


                                  Riff                    
     Dis  tant   La  ands With    Jake The   Dog    And   
  E  Q    S    S E   Q    E       Q    S   S Q.     Q     
-------------------------------|-------------------------|
-------------------------------|--8----8---L-8-----------|
-----5----4----L----------7----|--------------------9----|
-----------------7s--5---------|--5----5---L-5-----------|
-----3----2----L----------5----|--------------------7----|
-----------------5s--3---------|-------------------------|


  Finn The Hu   man  The    Fun      Will   Ne ver  End...  
  Q    E   Q    Q    E      E   Q    S    S E  Q    E       
-------------------------|---------------------------------|
--7----------------------|---------------------------------|
-------9---9----7----4---|--5--------5----L-5--7----7------|
--4----------------------|---------------------------------|
-------7---7----5----2---|--3--------3----L-3--5----5------|
-------------------------|---------------------------------|


  Outro                                           
        It's Ad ven  ture    Time!                
  Q     E    E  Q    Q       Q     H.             
--------------------------|---------------------||
--------------------------|--8------------------||
--L-----7----4------------|---------------------||
----------------7----5----|--5------------------||
--L-----5----2------------|---------------------||
----------------5----3----|---------------------||



- Voice Melody: (Espanol)


          Intro                                
          Ho    ra   De...A ven tu ra...       
     S    E     S  S E      E   E  E     Q     
E||----|--------------------------------------|
B||----|--------8--L-8------8---8-------------|
G||----|--7------------------------9----------|
D||----|--------5--L-5------5---5-------------|
A||----|--5------------------------7----------|
E||----|--------------------------------------|


  Lla   ma...A   Tus A  mi gos         Va   mos A  Tie  rras  
  S   S S      S E   E  E  E   Q       Q    E   E  Q    Q     
------------------------------------|------------------------|
--7---L-7------L--------------------|------------------------|
-----------------9---7--9--7--------|--5----5---4------------|
--4---L-4------L--------------------|--------------7----5----|
-----------------7---5--7--5--------|--3----3---2------------|
------------------------------------|--------------5----3----|


                          Riff                                                  
  Muy  Le ja   nas        Con  Jake   El Pe rro    Y     Finn El Hu ma no       
  Q    E  Q    Q    E     Q    S    S E  E  E   E  E     Q    E  E  E  Q    E   
-----------------------|------------------------------|------------------------|
-----------------------|-------8----L-8--8------------|--7---------------------|
--5----4---------------|--7-----------------9------9--|-------9--7--9--7-------|
----------7----5-------|-------5----L-5--5------------|--4---------------------|
--3----2---------------|--5-----------------7------7--|-------7--5--7--5-------|
----------5----3-------|------------------------------|------------------------|


                                     Outro                        
  Y    Di ver sion   Siem pre Ten    dras... Has   ta...El  Fi    
  Q    E  E   S    S E    E   E      Q.      S   S Q        Q     
----------------------------------|------------------------------|
----------------------------------|------------------------------|
--5----5--5---5----L-5----5---7---|--7---------------------------|
----------------------------------|----------9---L-7-------------|
--3----3--3---3----L-3----3---5---|--5---------------------10----|
----------------------------------|----------7---L-5--------3----|


  nal!                
  Q    H.             
--------------------||
--8-----------------||
--------------------||
--5-----------------||
--------------------||
--------------------||




- Coro:


         Intro
     S    W                   W                   W                 
E||----|-------------------|-------------------|-------------------|
B||----|-------------------|-------------------|-------------------|
G||----|-------------------|-------------------|-------------------|
D||----|-------------------|-------------------|-------------------|
A||----|-------------------|-------------------|-------------------|
E||----|-------------------|-------------------|-------------------|


  W                   W                   W                 
-------------------|-------------------|-------------------|
-------------------|-------------------|-------------------|
-------------------|-------------------|-------------------|
-------------------|-------------------|-------------------|
-------------------|-------------------|-------------------|
-------------------|-------------------|-------------------|


   Fun      Will    Ne  ver   End...          It's Ad  ven   ture  
   E  Q     S    S  E   Q     E         Q     E    E   Q     Q     
------------------------------------|-----------------------------|
--13-------13----L-13--15----15-----|---L----15---12--------------|
------------------------------------|-----------------14----12----|
------------------------------------|-----------------------------|
------------------------------------|-----------------------------|
------------------------------------|-----------------------------|


   Time!               
   Q    H.             
--15-----------------||
---------------------||
---------------------||
---------------------||
---------------------||
---------------------||            
Submit corrections


        Theme Song  lessons Hard to play? Try these video lessons and learn fast Theme Song  lessons
        
↑ Back to top | Tablatures and chords for acoustic guitar and electric guitar, ukulele, drums are parodies/interpretations of the original songs. You may use it for private study, scholarship, research or language learning purposes only