Home » A » Adventures »

Adventures - Heavenly Bass

Artists:  A B C D E F G H I J K L M N O P Q R S T U V W X Y Z # 

Heavenly Bass

(ver. 1) Click to play this song!
Adventures
 Rating:
4.1/5 (31 vote)
                
[Verse] 
(00.27 - 00.41)

G|---------------------------------------------------------------------------------------|
D|---------------------------------------------------------------------------------------|
A|---------------------------------------------------------------------------------------|
E|-14-14-14-14-14-14-14-14-0-0-0-0-0-0-0-0-14-14-14-14-14-14-14-14-0-0-0-0-0-0-0-0-------|

G|---------------------------------------------------------------------------|
D|---------------------------------------------------------------------------|
A|---------------------------------------------------------------------------|
E|-7-7-7-7-7-7-7-7-7-7-7-7-7-7-7-7-7-7-7-7-7-7-7-7-7-7-7-7-7-7-7-7-----------|


[Instrumental]
00.41 - 01.09

G|---------------------------------------------------------------------------------------|
D|---------------------------------------------------------------------------------------|
A|---------------------------------------------------------------------------------------|
E|-14-14-14-14-14-14-14-14-7-7-7-7-7-7-7-7-14-14-14-14-14-14-14-14-7-7-7-7-7-7-7-7-------|

G|---------------------------------------------------------------------------|
D|---------------------------------------------------------------------------|
A|---------------------------------------------------------------------------|
E|-7-7-7-7-7-7-7-7-7-7-7-7-7-7-7-7-7-7-7-7-7-7-7-7-7-7-7-7-7-7-7-7-----------|

G|---------------------------------------------------------------------------------------|
D|---------------------------------------------------------------------------------------|
A|---------------------------------------------------------------------------------------|
E|-14-14-14-14-14-14-14-14-7-7-7-7-7-7-7-7-14-14-14-14-14-14-14-14-7-7-7-7-7-7-7-7-------|

G|---------------------------------------------------------------------------|
D|---------------------------------------------------------------------------|
A|---------------------------------------------------------------------------|
E|-7-7-7-7-7-7-7-7-7-7-7-7-7-7-7-7-7-7-7-7-7-7-7-7-7-7-7-7-7-7-7-7-----------|


[Chorus]
(01.09 - 01.37)

G|---------------------------------------------------------------------------|
D|---------------------------------------------------------------------------|
A|---------------------------------5-5-5-5-5-5-5-5-5-5-5-5-5-5-5-5-----------|
E|-2-2-2-2-2-2-2-2-2-2-2-2-2-2-2-2-------------------------------------------|

G|---------------------------------------------------------------------------|
D|---------------------------------------------------------------------------|
A|-2-2-2-2-2-2-2-2-2-2-2-2-2-2-2-2-2-2-2-2-2-2-2-2-2-2-2-2-2-2-2-2-----------|
E|---------------------------------------------------------------------------|

G|---------------------------------------------------------------------------|
D|---------------------------------------------------------------------------|
A|---------------------------------5-5-5-5-5-5-5-5-5-5-5-5-5-5-5-5-----------|
E|-2-2-2-2-2-2-2-2-2-2-2-2-2-2-2-2-------------------------------------------|

G|---------------------------------------------------------------------------|
D|---------------------------------------------------------------------------|
A|-2-2-2-2-2-2-2-2-2-2-2-2-2-2-2-2-2-2-2-2-2-2-2-2-2-2-2-2-2-2-2-2-----------|
E|---------------------------------------------------------------------------|


[Verse]
(01.37 - 02.04)

G|---------------------------------------------------------------------------|
D|-----------------4-4-4-4-------------------------4-4-4-4-------------------|
A|-------------------------2-2-2-2-------------------------2-2-2-2-----------|
E|-2-2-2-2-2-2-2-2-----------------2-2-2-2-2-2-2-2---------------------------| x4


[Chorus Part 2 / Outro] 
(02.04 - End)

G|---------------------------------------------------------------------------|
D|-----------------4-4-4-4-------------------------4-4-4-4-------------------|
A|-------------------------2-2-2-2-------------------------2-2-2-2-----------|
E|-2-2-2-2-2-2-2-2-----------------2-2-2-2-2-2-2-2---------------------------| x12

G|--------|
D|--------|
A|--------|
E|-2~-----|
            
Submit corrections

↑ Back to top | Tablatures and chords for acoustic guitar and electric guitar, ukulele, drums are parodies/interpretations of the original songs. You may use it for private study, scholarship, research or language learning purposes only