» » »

Adventures - Heavenly Tabs

Artists:  A B C D E F G H I J K L M N O P Q R S T U V W X Y Z # 

Heavenly Tabs

(ver. 1) Click to play this song!
Adventures
 Rating:
4.3/5 (26 votes)

 Heavenly  lessons Tabs too difficult? Try these video lessons and learn fast
 
                
[Intro] 
e|----------------------------------|
B|----------------------------------|
G|----------------------------------|  (2x)
D|------5-5-4-----2--2--2--2--2--2--|
A|----5-5------5--2--2--2--2--2--2--|
E|--3--------3----0--0--0--0--0--0--|


e|----------------------------------|
B|----------------------------------|
G|--2--2---0-------2--2---4---------|  (1x)
D|--2--2---2-4-2---2--2---2-4-2-----|
A|--3--3---3-3-3---3--3---3-3-3-----|
E|----------------------------------|
 
[Verse 1]
e|----------------------------------|
B|----------------------------------|
G|----------------------------------|  (2x)
D|------5-5-4-----2--2--2--2--2--2--|
A|----5-5------5--2--2--2--2--2--2--|
E|--3--------3----0--0--0--0--0--0--|


e|----------------------------------|
B|----------------------------------|
G|--2--2---0-------2--2---4---------|  (1x)
D|--2--2---2-4-2---2--2---2-4-2-----|
A|--3--3---3-3-3---3--3---3-3-3-----|
E|----------------------------------|


[Adlib]
e|----------------------------------|
B|----------------------------------|
G|----------------------------------|  (2x)
D|------5-5-4-----2--2--2--2--2--2--|
A|----5-5------5--2--2--2--2--2--2--|
E|--3--------3----0--0--0--0--0--0--|
 
e|----------------------------------|
B|----------------------------------|
G|--2--2---0-------2--2---4---------|  (1x)
D|--2--2---2-4-2---2--2---2-4-2-----|
A|--3--3---3-3-3---3--3---3-3-3-----|
E|----------------------------------|


[Chorus](2x) 
(chorus chord shape)

     G      D/F#     Cadd9     CM7
e|---3-------0---------3--------0-----|
B|---3-------3---------3--------0-----|
G|---0-------2---------0--------0-----|
D|---0-------0---------2--------2-----|
A|---2-------x---------3--------3-----|
E|---3-------2---------x--------x-----|


     G         D/F# 
Slow down, and see the green 
     Cadd9               CM7  
There's much more here to see than you think


[Bridge](2x)
*Palm Mute down strokes*

Pushing away the ways we are faithful

e|------------------------------------|
B|------------------------------------|
G|------------------------4-4-4-4-4---|  (2x)
D|--5-5-5-5-5-5-5-5-5-5-5-5-5-5-5-5---|
A|--5-5-5-5-5-5-5-3-3-3-3-2-2-2-2-2---|
E|--3-3-3-3-3-3-3---------------------|

I could leave it all behind

e|------------------------------------|
B|------------------------------------|
G|------------------------4-4-4-4-4---|  (2x)
D|--2-2-2-2-2-2-2-5-5-5-5-5-5-5-5-5---|
A|--2-2-2-2-2-2-2-3-3-3-3-2-2-2-2-2---|
E|--0-0-0-0-0-0-0---------------------|


[Verse2](2x) 
(verse chord shape) 
     G      D/Bm    Cadd9      Em7
e|---3-------0---------3--------3-----|
B|---3-------3---------3--------3-----|
G|---0-------2---------0--------0-----|
D|---0-------0---------2--------2-----|
A|---2-------2---------3--------2-----|
E|---3-------x---------x--------0-----|


G   Cadd9  D/Bm 
He's a swarm 

G   Cadd9  D/Bm    Em7  Cadd9  D/Bm 
When I hear you,   I can see you
  
Em7  Cadd9  D/Bm 
Not how I want to
 
[Outro] 
It's a chore to be ground for you

e|------------------------------------|
B|------------------------------------|
G|------------------------4-4-4-4-4---|  (2x)
D|--5-5-5-5-5-5-5-5-5-5-5-5-5-5-5-5---|
A|--5-5-5-5-5-5-5-3-3-3-3-2-2-2-2-2---|
E|--3-3-3-3-3-3-3---------------------|

He's a swarm, he's a swarm, I am unforgiving

e|------------------------------------|
B|------------------------------------|
G|------------------------4-4-4-4-4---|  (2x)
D|--2-2-2-2-2-2-2-5-5-5-5-5-5-5-5-5---|
A|--2-2-2-2-2-2-2-3-3-3-3-2-2-2-2-2---|
E|--0-0-0-0-0-0-0---------------------|


He's a swarm

e|------------------------------------|
B|------------------------------------|
G|------------------------4-4-4-4-4---|  (2x)
D|--5-5-5-5-5-5-5-5-5-5-5-5-5-5-5-5---|
A|--5-5-5-5-5-5-5-3-3-3-3-2-2-2-2-2---|
E|--3-3-3-3-3-3-3---------------------|

He's a swarm

e|------------------------------------|
B|------------------------------------|
G|------------------------4-4-4-4-4---|  (2x)
D|--2-2-2-2-2-2-2-5-5-5-5-5-5-5-5-5---|
A|--2-2-2-2-2-2-2-3-3-3-3-2-2-2-2-2---|
E|--0-0-0-0-0-0-0---------------------|
            
Submit corrections


        Heavenly  lessons Hard to play? Try these video lessons and learn fast Heavenly  lessons
        
↑ Back to top | Tablatures and chords for acoustic guitar and electric guitar, ukulele, drums are parodies/interpretations of the original songs. You may use it for private study, scholarship, research or language learning purposes only