» » »

A Dozen Furies - An Idea And Some Rope Tabs

Artists:  A B C D E F G H I J K L M N O P Q R S T U V W X Y Z # 

An Idea And Some Rope Tabs

(ver. 1) Click to play this song!
A Dozen Furies
 Rating:
4/5 (6 votes)

 An Idea And Some Rope lessons Tabs too difficult? Try these video lessons and learn fast
 
                this song is supposed to be in drop c sharp but i play it in drop c and 
it sounds fine. this is also my first tab so if im wrong sorry.
  Guitar One
|-------------------------------------------------------------------------|
|-------------------------------------------------------------------------|
|-------------------------------------------------------------------------|
|----------------7h8p7----------------------------------------------------|
|--0-------------------10-8-7-8-10--8-8-8-8-8-8--3-----3\-5--0--0---------|
|--0-000-000-000--------------------8-8-8-8-8-8--3-3-3 3\-5--0--0---------| 
     ... ... ...                      . . . . .    . . .        .             
                                                                                 
									      	
|-------------------------------------------------------------------------|
|-------------------------------------------------------------------------|
|-------------------------------------------------------------------------|
|----------------10h12p10-------------------------------------------------|
|--0----------------------13-12-10-12-13-8-8-8-8-8-8-10-10-10-10-10-10-10-|
|--0-000-000-000-------------------------8-8-8-8-8-8-10-10-10-10-10-10-10-|
     ... ... ...                           . . . . .    . . . . . . . . .

  	
  Guiatr Two	
|-------------------------------------------------------------------------|
|-------------------------------------------------------------------------|
|-------------------------------------------------------------------------|
|----------------7h8p7----------------------------------------------------| 
|--0-------------------10-8-7-8-10-8-------------------3\-5-0-0-----------|
|--0-------------------------------8-------------------3\-5-0-0-----------|
							      .


|-------------------------------------------------------------------------|
|-------------------------------------------------------------------------|
|-------------------------------------------------------------------------|
|----------------10h12p10-------------------------------------------------|
|--0----------------------13-12-10-12-13-8-10-10--------------------------|
|--0-------------------------------------8-10-10--------------------------|


 Guitar One and guitar two
|-------------------------------------------------------------------------|
|-------------------------------------------------------------------------| 
|-------------------------------------------------------------------------|
|-------------------------------------------------------------------------|
|---------------------------0-0-------------------------0-0---------------|
|--0-0-0-000-0--0-0-0-000-0-0-0-0-0-0-000-0-000-000-000-0-0---------------|
   . . . ... .  . . . ... .     . . . ... . ... ... ... 

  Repeat this part twice then........ slide into this chord
|--------------------------------|----------------------------------------|
|-----------10-10----------------|\14-14----------------14\16-16------1414| 
|-----------13-13----------------|\17-17----------------17\19-19------1717|
|--------------------------------|----------------------------------------|
|---------------------------0-0--|------------------0-0-------------------|
|-0-0-0-000-------0-0-0-000-0-0--|--------0-0-0-000-0-0----------0-0-0----|


  i dont no the chorus so... ill try to get back to you on that but here are the lines for it.
|-------------------------------------------------------------------------|
|-------------------------------------------------------------------------|
|-------------------------------------------------------------------------|
|-------------------------------------------------------------------------|
|-------------------------------------------------------------------------|
|-------------------------------------------------------------------------|




 Guitar One and guitar two (four times)
|-------------------------------------------------------------------------|
|-------------------------------------------------------------------------| 
|-------------------------------------------------------------------------|
|-------------------------------------------------------------------------|
|---------------------------0-0-------------------------0-0---------------|
|--0-0-0-000-0--0-0-0-000-0-0-0-0-0-0-000-0-000-000-000-0-0---------------|

then back to chorus

then after chorus 
 Guitar One
|-------------------------------------------------------------------------|
|-------------------------------------------------------------------------|
|-----------------times 11 ---then----------------------------------------|
|------------------------------------8-7----------------------------------|
|---------------------------------------10-8------------------------------|
|--000-----000------------------------------------------------------------|

 Guitar two
|-------------------------------------------------------------------------|
|-------------------------------------------------------------------------|
|------------------times 16  then-----------------------------------------|
|------------------------------------12-10--------------------------------|
|------------------------------------------13-12--------------------------|
|-------000----000--------------------------------------------------------|

after is a bunch of picking i think you can handle that
.... then after is the chorus

 Guitar One and guitar two (four times)
|-------------------------------------------------------------------------|
|-------------------------------------------------------------------------| 
|-------------------------------------------------------------------------|
|-------------------------------------------------------------------------|
|---------------------------0-0-------------------------0-0---------------|
|--0-0-0-000-0--0-0-0-000-0-0-0-0-0-0-000-0-000-000-000-0-0---------------|

the end is self explanatory too... this is my first tab so if im wrong sorry.
            
Submit corrections


        An Idea And Some Rope lessons Hard to play? Try these video lessons and learn fast An Idea And Some Rope lessons
        
↑ Back to top | Tablatures and chords for acoustic guitar and electric guitar, ukulele, drums are parodies/interpretations of the original songs. You may use it for private study, scholarship, research or language learning purposes only