Home » A » Adera »

Adera - Muara Chords

Artists:  A B C D E F G H I J K L M N O P Q R S T U V W X Y Z # 

Muara Chords

(ver. 2) Click to play this song!
Adera
[Intro]
                   Dadd9         Em7/D         D     Em7/D
e|--9/10---9---7-------2---3/5---3--3----7\5------5---3----|
B|--------------------5------------3-------------2----3----|
G|--10/11--9---7-----2------------4-------------2-----4----|
D|------------------0------------0-------------0------0----|
A|---------------------------------------------------------|
E|---------------------------------------------------------|
 
 
[Verse]
 
 Dadd9     Em7      F#m7  Em7
Kau adalah puisi hati
 Dadd9     Em7         F#m7 B7sus4 B7
Di kala rindu tak bertepi
 Em9          A
Ku ingin kau ada
 D       A/C#  Bm7
Saat ku membuka mata
 Em9                     Cadd9  Asus4 A
Hingga ku menutupnya kembali
 
 Dadd9         Em7     F#m7  Em7 A
Kau sirnakan kabut kelabu
 Dadd9     Em7     F#m7 B7sus4 B7
Di savana pencarianku
 Gadd9         A/G
Bagai embun pagi
     F#m7       Bm7  A   G   D/F#  Em9  A  D
Kau lepaskan dahaga kemarau             hati
 
 
[Refrain 1]
 
 GM7        D/F#         Em9              DM7
Kaulah lukisan pagi yang ku gambar untuk senjaku
 GM7       D/F#           Em9             DM7
Kaulah selaksana bunga yang warnai musim semiku
 C#m7-5    F#7       Bm7   A   Eadd9/G#
Di kala hati ini gundah
 Em7           D/F#      Cadd9  Asus4  A
Kau membuatnya menjadi cerah
 Dadd9     Em7      F#m7         Gadd9
Kaulah matahariku dan kaulah samudra
       Em7       Asus4 A D
Tempat hatiku bermuara
 
 
[Interlude]
 
 Dadd9     Em7      F#m7  Em7
Kau jawaban dari doaku
 Dadd9      Em7      F#m7 B7sus4 B7
Yang akhiri penantianku
 Gadd9         A/G
Bagai bintang jatuh
     F#m7       Bm7  A   G - D/F# - Em9 - A - D
Kau hadirkan harapan di dalam             hati
 
 
[Refrain 2]
 
 GM7        D/F#         Em9              DM7
Kaulah deburan ombak yang pecahkan batu karangku
GM7       D/F#           Em9             DM7
Kaulah gugusan bintang yang hiasi malam gelapku
 C#m7-5    F#7       Bm7   A   Eadd9/G#
Di kala hati ini gundah
 Em7           D/F#      Cadd9  Asus4  A
Kau membuatnya menjadi cerah
 
 
[Outro]
 
 Dadd9     Em7      F#m7         Gadd9
Kaulah matahariku dan kaulah samudra
       Em7       Asus4 A Bm7 A E/G#
Tempat hatiku bermuara
       Em7       Asus4 D
Tempat hatiku bermuara
 
e|---9/10---9---7---2/3---2---0---------0h2-------------|
B|-------------------------------2-----3----------------|
G|--10/11---9---7---3/4---2---0-------2-----------------|
D|-------------------------------2---0------------------|
A|------------------------------------------------------|
E|------------------------------------------------------|
            
Submit corrections

↑ Back to top | Tablatures and chords for acoustic guitar and electric guitar, ukulele, drums are parodies/interpretations of the original songs. You may use it for private study, scholarship, research or language learning purposes only