» » »

Adema - Barricades In Time Tabs

Artists:  A B C D E F G H I J K L M N O P Q R S T U V W X Y Z # 

Barricades In Time Tabs

(ver. 1) Click to play this song!
Adema
 Rating:
4.2/5 (5 votes)


 Barricades In Time lessons Tabs too difficult? Try these video lessons and learn fast
 
                Adema - Barricades In Time
Tuning - tune down 3 whole step in drop A# - A# F A# D# G C

Intro

C |----------------------------------------|
G |----------------------------------------|
D#|-15\14-14--15\14-14--15\14-14--15\14-14-|
A#|-x-\x--x---x-\x--x---x-\x--x---x-\x--x--|
F |-13\12-12--13\12-12--13\12-12--13\12-12-|
A#|----------------------------------------| Do this once...then..

C |--------------------------------------------------|---------------|
G |--------------------------------------------------|---------------|
D#|-14\12-/14---14--15---15\14-/15---15--17---17\15--|-/17---17--19--|
A#|-x-\x--/x----x---x----x-\x--/x----x---x----x-\x---|-/x----x---x---|
F |-12\10-/12---12--13---13\12-/13---13--15---15\13--|-/15---15--17--|
A#|--------------------------------------------------|---------------|

   ....Continued
   ------------------------|-----------------------------------------|
   ------------------------|-----------------------------------------|
   -20-20-20-20--10-10-10~-|-14\12-/14---14--15---15\14-/15---15--17-|
   -x--x--x--x---x--x--x-~-|-x-\x--/x----x---x----x-\x--/x----x---x--|
   -18-18-18-18--8--8--8-~-|-12\10-/12---12--13---13\12-/13---13--15-|
   ------------------------|-----------------------------------------|

   ....continued
   ------------|----------------------------------|
   ------------|----------------------------------|
   ---17/19-\17|--17--19---20-20-20-20--10-10-10~-|
   ---x-/x--\x-|--x---x----x--x--x--x---x--x--x-~-|
   ---15/17-\15|--15--17---18-18-18-18--8--8--8-~-|
   ------------|----------------------------------| Do intro 3 times...

Pre-Verse

C |------------------------|
G |------------------------|
D#|--15\14-14--15\14-14~---|
A#|--x-\x--x---x-\x--x-~---|
F |--13\12-12--13\12-12~---|
A#|------------------------| Do this once.

Verse (clean with delay)

C |-------------------------------|----------------------------------|
G |-------------------------------|----------------------------------|
D#|-------------------------8-----|--------------------------8-------|
A#|-----7-----8-----10------------|-----7------8------10-------------|
F |-10~----10----10-----10-----8~-|-10~-----10-----10-----10-----8~--|
A#|-------------------------------|----------------------------------|

   ....continued
   -----------------------------------------------------|
   -----------------------------------------------------| Do verse
   ------------------------------------------------7~---| 3 times.
   ----7----8------5--7----7~------7-------7-----5------|
   -6~----6----6-6-------6------5~----5-8-----3---------|
   -----------------------------------------------------|

Chorus (use distortion)

C |------------------------------------------------------------------|
G |------------------------------------------------------------------|
D#|-----------5-------------------------------------------3----2-----|
A#|---7---8--------8~------8----7----10----8----7h8----------------3-|
F |------------------------------------------------------------------|
A#|-5--5----5----5------8-----8----8-----8----8--------3-----3----3--|

   ....continued
   ---------------------------------------|
   ---------------3--------------1~-------|
   --------------------2~------2-----3----|
   ----3~---------------------------------|
   ---------------------------------------|
   --3----3-3--1-----1-----0--------------| Do chorus 2 times.

C |--------------------------------------------|
G |--------------------------------------------|
D#|--15\14-14--15\14-14~--15\14-14--15\14-14~--|
A#|--x-\x--x---x-\x--x-~--x-\x--x---x-\x--x-~--|
F |--13\12-12--13\12-12~--13\12-12--13\12-12~--|
A#|--------------------------------------------| Do this once.


Do verse 3 times like first time,
Do chorus 2 times like first time,
Then...

Interlude 1 (do this 2 times)

C |-------------------------------------------------------------------|
G |-------------------------------------------------------------------|
D#|-----------------------------------------20-20-20-20--13-13-13-13--|
A#|--5-5-5---3----5-5-5---6----5-5-5---5----x--x--x--x---x--x--x--x---|
F |--5-5-5---3----5-5-5---6----5-5-5---5----18-18-18-18--11-11-11-11--|
A#|--5-5-5---3----5-5-5---6----5-5-5---5------------------------------|

   ....continued (do this 2 times)
----------------------------------------------------------------------|
----------------------------------------------------------------------|
-------5-5-----------5--5-----------5-5------20-20-20-20--13-13-13-13-|
-5-5-5-----3---5-5-5------6---5-5-5-----5----x--x--x--x---x--x--x--x--|
-5-5-5-----3---5-5-5------6---5-5-5-----5----18-18-18-18--11-11-11-11-|
-5-5-5-----3---5-5-5------6---5-5-5-----5-----------------------------|


Bridge (acoustic guitar)

C |--6--------10-------5--------1------2--|
G |--8--------11-------6--------4------3--|  Strum this section
D#|--7--------10-------5--------3------2--|  2 times, then...
A#|--5--------8--------3--------1------0--|
F |--5--------8--------3--------1------0--|
A#|--5--------8--------3--------1------0--|

  Strum this section 2 times too.

C |--6--------10-11-11-11-11-11-11-10--10-10-10-10---5--------1----2--|
G |--8--------11-11-11-11-11-11-11-11--11-11-11-11---6--------4----3--|
D#|--7--------10-10-10-10-10-10-10-10--10-10-10-10---5--------3----2--|
A#|--5--------8--------------------------------------3--------1----0--|
F |--5--------8--------------------------------------3--------1----0--|
A#|--5--------8--------------------------------------3--------1----0--|

Interlude 2

C |-------------|--------------------------------|
G |--interlude--|--------------------------------|
D#|-------------|--------------------------------|
A#|-------------|-5\---/5\---/5\---/5\----5~-----|
F |-------------|-5\---/5\---/5\---/5\----5~-----|
A#|-------------|-5\---/5\---/5\---/5\----5~-----|

Outro (clean effect)   Repeat this 7 times. On the final time, add...

C |----------------------------17-------|  |---------|
G |-------------------------------18~---|  |--20~~---|
D#|-------------------------------------|  |---------|
A#|--------7----8-----10----------------|  |---------|
F |---10~----10----10----10-------------|  |---------|
A#|-------------------------------------|  |---------|

Rhythm guitar during chorus  Do this two times, then add...

G |--------------------------------|   |---------|
G |--------------------------------|   |---------|
D#|--------------------------------|   |---------|
A#|--5------8-------3------1----0--|   |--5-5-5--|
F |--5------8-------3------1----0--|   |--5-5-5--|
A#|--5------8-------3------1----0--|   |--5-5-5--|

Rhythm guita during outro - (acoustic - finger picking)

C |--------------------------------------------------------------------|
G |-----------------3---3-----3-----3------------------3-------3-------|
D#|-------0-------3------3-----3-----3-------0-------0-------0---0-----|
A#|-----0---0---0----------0-----0---------0---0---0-------0-------0---|
F |--------------------------------------------------------------------|
A#|---5-------5--------5-----------------5-------5-------5-----------6-|

   ....continued
   -----|
   -----|
   -----| Repeat that section
   -----| 4 times.
   -----|
   -5---|

C |------------------|-------------------------------------------------|
G |---------------3--|-------3~--------------------3-------3~----------|
D#|-----0-------0----|-----0-------------0-------0-------0-------------|
A#|---0---0---0------|---0-------------0---0---0-------0-------------0-|
F |------------------|-------------------------------------------------|
A#|---------5--------|-5----------6--5-------5-------5---------6--5----|

   ....continued
   --------------------------------3~~-|
   -----------3--3------3-----3--------|
   -0-------3------3------3-----3~-----|
   ---0---0----------0-----0-----------|
   ------------------------------------|
   ----5--------5----------------------|

Thats It! It might take some time, but its worth It! ENJOY!!!!!
            
Submit corrections



        Barricades In Time lessons Hard to play? Try these video lessons and learn fast Barricades In Time lessons
        
↑ Back to top | Tablatures and chords for acoustic guitar and electric guitar, ukulele, drums are parodies/interpretations of the original songs. You may use it for private study, scholarship, research or language learning purposes only