» » »

Acceptance - So Contagious Tabs

Artists:  A B C D E F G H I J K L M N O P Q R S T U V W X Y Z # 

So Contagious Tabs

(ver. 3) Click to play this song!
Acceptance
 Rating:
4/5 (15 votes)

 So Contagious lessons Tabs too difficult? Try these video lessons and learn fast
 
                Title – So Contagious
Artist- Acceptance
Album – Phantoms


Tuning: Drop D and Half-Step Down
Guitar 1 – Clean, Distortion
Guitar 2 – Clean, Distortion

 _________________
|Intro (0:00-0:10)|
|_________________|

Guitar 1
eb| |---------------------------------|---------------------------------|
Bb| |---------------------------------|---------------------------------|
Gb| |---------------------------------|---------------------------------|
Db| |-6-7-7-7-7-0-0-0-/11111111-6-6-6-|-6-7-7-7-7-0-0-0-/11111111-6-6-6-|
Ab| |---------------------------------|---------------------------------|
Db| |---------------------------------|---------------------------------|
                                                                        |
Guitar 2                                                                |
eb| |---------------------------------|---------------------------------|
Bb| |---------------------------------|---------------------------------|
Gb| |---------------------------------|---------------------------------|
Db| |---------------------------------|---------------------------------|
Ab| |-9-9-9-9-9-------0-0-0-0-0-7-7-7-|-9-9-9-9-9-------0-0-0-0-0-7-7-7-|
Db| |-----------0-0-0-----------------|-----------0-0-0-----------------|

 _________________
|Verse (0:11-0:32)|
|_________________|

Guitar 1
eb| |---------------------------------|---------------------------------|
Bb| |---------------------------------|---------------------------------|
Gb| |---------------------------------|---------------------------------|
Db| |-6-7-7-7-7-0-0-0-/11111111-6-6-6-|-6-7-7-7-7-0-0-0-/11111111-6-6-6-|
Ab| |---------------------------------|---------------------------------|
Db| |---------------------------------|---------------------------------|
   1. Oh    no...       This couldn't   -pected           And I can tell|
                        be more unex-                     that I've been|
                                                                        |
   2. Moving in so slow Don't let it    throw you off     Cause I'll be |
                                        too far           running right |
                                                                        |
Guitar 2                                                                |
eb| |---------------------------------|---------------------------------|
Bb| |---------------------------------|---------------------------------|
Gb| |---------------------------------|---------------------------------|
Db| |---------------------------------|---------------------------------|
Ab| |-9-9-9-9-9-------0-0-0-0-0-7-7-7-|-9-9-9-9-9-------0-0-0-0-0-7-7-7-|
Db| |-----------0-0-0-----------------|-----------0-0-0-----------------|

 ______________________
|Pre-Chorus (0:33-0:43)|
|______________________|

Guitar 1
eb| |---------------------------------|---------------------------------|
Bb| |---------------------------------|---------------------------------|
Gb| |---------------------------------|---------------------------------|
Db| |---------------------------------|---------------------------------|
Ab| |---------------------------------|-0-0-0-0-0-0-0-0-0-0-0-0-0-0-0-0-|
Db| |---------------------------------|---------------------------------|
      behind you...   Could this be out of line Could this be   Say you're
                                                out of line     the only

 __________________
|Chorus (0:43-1:04)|
|__________________|

Guitar 1 (Distortion)
eb| |---------------------------------|---------------------------------|
Bb| |---------------------------------|---------------------------------|
Gb| |-6-6-6-6-6-6-6-6-7-7-7-7-7-7-7-7-|---------------------------------|
Db| |-6-6-6-6-6-6-6-6-7-7-7-7-7-7-7-7-|-0-0-0-0-0-0-0-0-0-0-0-0-0-0-0-0-|
Ab| |-4-4-4-4-4-4-4-4-5-5-5-5-5-5-5-5-|-0-0-0-0-0-0-0-0-0-0-0-0-0-0-0-0-|
Db| |---------------------------------|-0-0-0-0-0-0-0-0-0-0-0-0-0-0-0-0-|
      one breaking    like    You're    only one I      shine on keep   |
          it down     this    the       will take a     me hang         |
                                                                        |
Guitar 2 (Distortion)                                                   |
eb| |---------------------------------|---------------------------------|
Bb| |---------------------------------|---------------------------------|
Gb| |-6-6-6-6-6-6-6-6-7-7-7-7-7-7-7-7-|-9-9-9-9-9-9-9-9-9-9-9-9-9-9-9-9-|
Db| |-x-x-x-x-x-x-x-x-x-x-x-x-x-x-x-x-|-x-x-x-x-x-x-x-x-x-x-x-x-x-x-x-x-|
Ab| |-4-4-4-4-4-4-4-4-5-5-5-5-5-5-5-5-|-7-7-7-7-7-7-7-7-7-7-7-7-7-7-7-7-|
Db| |---------------------------------|---------------------------------|

Guitar 1 (Distortion)
eb| |---------------------------------|---------------------------------|
Bb| |---------------------------------|---------------------------------|
Gb| |-6-6-6-6-6-6-6-6-7-7-7-7-7-7-7-7-|---------------------------------|
Db| |-6-6-6-6-6-6-6-6-7-7-7-7-7-7-7-7-|---------------------------------|
Ab| |-4-4-4-4-4-4-4-4-5-5-5-5-5-5-5-5-|---------------------------------|
Db| |---------------------------------|---------------------------------|
      -ing on  So contagiously         Oh...            When I'm around |
                                                        you I'm predict |
Guitar 2 (Distortion)                                                   |
eb| |---------------------------------|---------------------------------|
Bb| |---------------------------------|---------------------------------|
Gb| |-6-6-6-6-6-6-6-6-7-7-7-7-7-7-7-7-|---------------------------------|
Db| |-x-x-x-x-x-x-x-x-x-x-x-x-x-x-x-x-|---------------------------------|
Ab| |-4-4-4-4-4-4-4-4-5-5-5-5-5-5-5-5-|---------------------------------|
Db| |---------------------------------|---------------------------------|

 _________________
|Verse (1:05-1:26)|
|_________________|

Guitar 1
eb| |---------------------------------|---------------------------------|
Bb| |---------------------------------|---------------------------------|
Gb| |---------------------------------|---------------------------------|
Db| |-----7-7-7-0-0-0-/11111111-6-6-6-|-6-7-7-7-7-0-0-0-/11111111-6-6-6-|
Ab| |---------------------------------|---------------------------------|
Db| |---------------------------------|---------------------------------|
     -able              Cause I         loving you at     I know it's   |
                        believe in      first sight                     |
                                                                        |
Guitar 2                                                                |
eb| |---------------------------------|---------------------------------|
Bb| |---------------------------------|---------------------------------|
Gb| |---------------------------------|---------------------------------|
Db| |---------------------------------|---------------------------------|
Ab| |-----9-9-9-------0-0-0-0-0-7-7-7-|-9-9-9-9-9-------0-0-0-0-0-7-7-7-|
Db| |-----------0-0-0-----------------|-----------0-0-0-----------------|

Guitar 1
eb| |---------------------------------|---------------------------------|
Bb| |---------------------------------|---------------------------------|
Gb| |---------------------------------|---------------------------------|
Db| |-6-7-7-7-7-0-0-0-/11111111-6-6-6-|---------------------------------|
Ab| |---------------------------------|---------------------------------|
Db| |---------------------------------|---------------------------------|
      crazy but I'm     To take a       hold of you          Could this |
      hoping too                                             be out of  |
                                                                        |
Guitar 2                                                                |
eb| |---------------------------------|---------------------------------|
Bb| |---------------------------------|---------------------------------|
Gb| |---------------------------------|---------------------------------|
Db| |---------------------------------|---------------------------------|
Ab| |-9-9-9-9-9-------0-0-0-0-0-7-7-7-|---------------------------------|
Db| |-----------0-0-0-----------------|---------------------------------|

 ______________________
|Pre-Chorus (1:26-1:31)|
|______________________|

Guitar 1 (Distortion)
eb| |---------------------------------|
Bb| |---------------------------------|
Gb| |---------------------------------|
Db| |-0-0-0-0-0-0-0-0-0-0-0-0-0-0-0-0-|
Ab| |-0-0-0-0-0-0-0-0-0-0-0-0-0-0-0-0-|
Db| |-0-0-0-0-0-0-0-0-0-0-0-0-0-0-0-0-|
      line    Could this be   Say you're
              out of line     the only

 __________________
|Chorus (1:32-1:49)|
|__________________|

Guitar 1 (Distortion)
eb| |---------------------------------|---------------------------------|
Bb| |---------------------------------|---------------------------------|
Gb| |-6-6-6-6-6-6-6-6-7-7-7-7-7-7-7-7-|---------------------------------|
Db| |-6-6-6-6-6-6-6-6-7-7-7-7-7-7-7-7-|-0-0-0-0-0-0-0-0-0-0-0-0-0-0-0-0-|
Ab| |-4-4-4-4-4-4-4-4-5-5-5-5-5-5-5-5-|-0-0-0-0-0-0-0-0-0-0-0-0-0-0-0-0-|
Db| |---------------------------------|-0-0-0-0-0-0-0-0-0-0-0-0-0-0-0-0-|
      one breaking    like    You're    only one I      shine on keep   |
          it down     this    the       will take a     me hang         |
                                                                        |
Guitar 2 (Distortion)                                                   |
eb| |---------------------------------|---------------------------------|
Bb| |---------------------------------|---------------------------------|
Gb| |-6-6-6-6-6-6-6-6-7-7-7-7-7-7-7-7-|-9-9-9-9-9-9-9-9-9-9-9-9-9-9-9-9-|
Db| |-x-x-x-x-x-x-x-x-x-x-x-x-x-x-x-x-|-x-x-x-x-x-x-x-x-x-x-x-x-x-x-x-x-|
Ab| |-4-4-4-4-4-4-4-4-5-5-5-5-5-5-5-5-|-7-7-7-7-7-7-7-7-7-7-7-7-7-7-7-7-|
Db| |---------------------------------|---------------------------------|

Guitar 1 (Distortion)
eb| |---------------------------------|---------------------------------|
Bb| |---------------------------------|---------------------------------|
Gb| |-6-6-6-6-6-6-6-6-7-7-7-7-7-7-7-7-|---------------------------------|
Db| |-6-6-6-6-6-6-6-6-7-7-7-7-7-7-7-7-|---------------------------------|
Ab| |-4-4-4-4-4-4-4-4-5-5-5-5-5-5-5-5-|---------------------------------|
Db| |---------------------------------|---------------------------------|
      -ing on  So contagiously                            Oh your every |
                                                                        |
Guitar 2 (Distortion)                                                   |
eb| |---------------------------------|---------------------------------|
Bb| |---------------------------------|---------------------------------|
Gb| |-6-6-6-6-6-6-6-6-7-7-7-7-7-7-7-7-|---------------------------------|
Db| |-x-x-x-x-x-x-x-x-x-x-x-x-x-x-x-x-|---------------------------------|
Ab| |-4-4-4-4-4-4-4-4-5-5-5-5-5-5-5-5-|---------------------------------|
Db| |---------------------------------|---------------------------------|

 __________________
|Bridge (1:50-2:12)|
|__________________|

Guitar 1
eb| |---------------------------------|---------------------------------|
Bb| |-----2-----2-----2-----2-----2---|---------------------------------|
Gb| |---2-----2-----2-----2-----2-----|---------------------------------|
Db| |-0-----0-----0-----0-----0-----0-|---------------------------------|
Ab| |---------------------------------|---------------------------------|
Db| |---------------------------------|---------------------------------|
     -thing I wanted Come to think about                          On ac |
                     it I'm aching                                      |
                                                                        |
Guitar 2                                                                |
eb| |---------------------------------|------12----------12-------------|
Bb| |---------------------------------|----------12---------7-----------|
Gb| |---------------------------------|---7-----7-----7-------7---------|
Db| |---------------------------------|-7---7-------7---7---------------|
Ab| |---------------------------------|---------------------------------|
Db| |---------------------------------|---------------------------------|
                                        + + + + + + + + + + + +

Guitar 1
eb| |---------------------------------|---------------------------------|
Bb| |-----2-----2-----2-----2-----2---|---------------------------------|
Gb| |---2-----2-----2-----2-----2-----|---------------------------------|
Db| |-0-----0-----0-----0-----0-----0-|---------------------------------|
Ab| |---------------------------------|---------------------------------|
Db| |---------------------------------|---------------------------------|
     -count of my    Will you welcome                        Could this |
      transgression  this confession                         be out of  |
                                                                        |
Guitar 2                                                                |
eb| |---------------------------------|------12-------------------------|
Bb| |---------------------------------|----------12---------------------|
Gb| |---------------------------------|---7-----7-----------------------|
Db| |---------------------------------|-7---7-------7-------------------|
Ab| |---------------------------------|---------------7-----------------|
Db| |---------------------------------|---------------------------------|
                                        + + + + + + + +

 _____________________
|Interlude (2:12-2:22)|
|_____________________|

Guitar 1 & 2
eb| |---------------------------------|---------------------------------|
Bb| |---------------------------------|---------------------------------|
Gb| |---------------------------------|---------------------------------|
Db| |---------------------------------|---------------------------------|
Ab| |---------------------------------|---------------------------------|
Db| |---------------------------------|---------------------------------|
      line    Could this be   Say you're One breaking    like    You're
              out of line     the only       it down     this    the only

 __________________
|Chorus (2:23-2:44)|
|__________________|

Guitar 1 (Distortion)
eb| |---------------------------------|---------------------------------|
Bb| |---------------------------------|---------------------------------|
Gb| |---------------------------------|-6-6-6-6-6-6-6-6-7-7-7-7-7-7-7-7-|
Db| |-0-0-0-0-0-0-0-0-0-0-0-0-0-0-0-0-|-6-6-6-6-6-6-6-6-7-7-7-7-7-7-7-7-|
Ab| |-0-0-0-0-0-0-0-0-0-0-0-0-0-0-0-0-|-4-4-4-4-4-4-4-4-5-5-5-5-5-5-5-5-|
Db| |-0-0-0-0-0-0-0-0-0-0-0-0-0-0-0-0-|---------------------------------|
   1. only one I      shine on keep     -ing on So contagiously Could   |
      will take a     me hang                                   this be |
                                                                out of  |
                                                                        |
   2. line    Could this be   Say you're One breaking    like    You're |
              out of line     the only       it down     this   the only|
                                                                        |
Guitar 2 (Distortion)                                                   |
eb| |---------------------------------|---------------------------------|
Bb| |---------------------------------|---------------------------------|
Gb| |-9-9-9-9-9-9-9-9-9-9-9-9-9-9-9-9-|-6-6-6-6-6-6-6-6-7-7-7-7-7-7-7-7-|
Db| |-x-x-x-x-x-x-x-x-x-x-x-x-x-x-x-x-|-x-x-x-x-x-x-x-x-x-x-x-x-x-x-x-x-|
Ab| |-7-7-7-7-7-7-7-7-7-7-7-7-7-7-7-7-|-4-4-4-4-4-4-4-4-5-5-5-5-5-5-5-5-|
Db| |---------------------------------|---------------------------------|

 _________________
|Outro (2:44-3:11)|
|_________________|

Guitar 1 (Distortion)
eb| |---------------------------------|---------------------------------|
Bb| |---------------------------------|---------------------------------|
Gb| |---------------------------------|-6-6-6-6-6-6-6-6-7~~~------------|
Db| |-0-0-0-0-0-0-0-0-0-0-0-0-0-0-0-0-|-6-6-6-6-6-6-6-6-7~~~------------|
Ab| |-0-0-0-0-0-0-0-0-0-0-0-0-0-0-0-0-|-4-4-4-4-4-4-4-4-5~~~------------|
Db| |-0-0-0-0-0-0-0-0-0-0-0-0-0-0-0-0-|---------------------------------|
      only one I      shine on keep     -ing on So contagiously         |
      will take a     me hang                                           |
                                                                        |
                                                                        |
Guitar 2 (Distortion)                                                   |
eb| |---------------------------------|---------------------------------|
Bb| |---------------------------------|---------------------------------|
Gb| |-9-9-9-9-9-9-9-9-9-9-9-9-9-9-9-9-|-6-6-6-6-6-6-6-6-7~~~------------|
Db| |-x-x-x-x-x-x-x-x-x-x-x-x-x-x-x-x-|-x-x-x-x-x-x-x-x-x---------------|
Ab| |-7-7-7-7-7-7-7-7-7-7-7-7-7-7-7-7-|-4-4-4-4-4-4-4-4-5~~~------------|
Db| |---------------------------------|---------------------------------|


 ________
| Legend |
|________|

+ - Harmonics
~ - Sustain
x - Mute
/ - Slide up
 _______
| Notes |
|_______|

I'll try to tab the other effects for guitar on my next update. The octaves played
in the chorus is slightly played and there are also some other non-guitar sounds.
The harmonics might not be right but they sound close enough.
            
Submit corrections


        So Contagious lessons Hard to play? Try these video lessons and learn fast So Contagious lessons
        
↑ Back to top | Tablatures and chords for acoustic guitar and electric guitar, ukulele, drums are parodies/interpretations of the original songs. You may use it for private study, scholarship, research or language learning purposes only