Home » A » Aaron Pritchett »

Aaron Pritchett - Lucky For Me Tabs

Artists:  A B C D E F G H I J K L M N O P Q R S T U V W X Y Z # 

Lucky For Me Tabs

(ver. 2) Click to play this song!
Aaron Pritchett
LEGEND

b=bend        

LUCKY FOR ME (intro)

e----------------------------------
b----------------------------------
g----------------------------------
d----0--------0--------------------
a-4b---0--4b----4-2----------------
e----------------------------------

e--------------------------------------
b--------------------------------------
g--------------------------------------
d----0-------0-------------------------
a-4b---0-4b----4-2-4-0---0-2-0---------
e----------------------3---------------
            
Submit corrections

↑ Back to top | Tablatures and chords for acoustic guitar and electric guitar, ukulele, drums are parodies/interpretations of the original songs. You may use it for private study, scholarship, research or language learning purposes only