Home » A »

A - Shut Yer Face Tabs

Artists:  A B C D E F G H I J K L M N O P Q R S T U V W X Y Z # 

Shut Yer Face Tabs

(ver. 2) Click to play this song!
A
 Rating:
4/5 (4 votes)
                Tuning: Drop D (DADGBe)

Think everything is here for this one minus the solo in the middle - there's a 
strange effect that's being used that I cant simulate so cant figure out I'm afraid.

INTRO
e|-----------------------------------------------|
B|--------------3-3-3-0-3------------------------|
G|-----------------------------------------------|
D|--2-4/6-6--4-------------2--4/6-6--4-----------|
A|--2----------------------2------------0---0-0--|
D|--2----------------------2------------0-0-0-0--|

e|--2-2-2--2--2--2---------|
B|--3-3-3--3--3--3---------|
G|--2-2-2--2--2--2---------|
D|--0-0-0------------------|
A|---------4--4--4--7/-----|
D|-------------------------|

VERSE
Just this a few times and with palm mutes here and there...
e|----------------|
B|----------------|
G|----------------|
D|--2-2---0-2-2---|
A|--2-2---0-2-2---|
D|--2-2---0-2-2---|

...followed by this again
e|--2-2-2--2--2--2-------|
B|--3-3-3--3--3--3-------|
G|--2-2-2--2--2--2-------|
D|--0-0-0----------------|
A|---------4--4--4--7/---|
D|-----------------------|

CHORUS 1
e|-----------------------------|
B|--11-11-11-11--11-11-11-11---|
G|--11-11-11-11--11-11-11-11---|
D|--11-11-11-11--11-11-11-11---|
A|--9--9--9--9----8--8--8--8---|
D|-----------------------------|

Then I'm not quite sure about this but something like:
e|---------0----------------0-----------|
B|---------0----------------0-----------|
G|---------8----------------6-----------|
D|-----6------6---6------4-----4---4----|
A|--7-----------7-----6----------6------|
D|--------------------------------------|

(Then the weird solo/bridge that I'm afraid I cant figure out)

CHORUS 2
Towards the end, the 'normal' chorus switches to this:
e|--------------------------------------------|
B|--------------------------------------------|
G|--------------------------------------------|
D|------4---4-----4---4-----4---4------4---4--|
A|----4---4-----4---4-----4---4------4---4----|
D|--4---------3---------2----------1----------|

And thats the lot!
            
Submit corrections

↑ Back to top | Tablatures and chords for acoustic guitar and electric guitar, ukulele, drums are parodies/interpretations of the original songs. You may use it for private study, scholarship, research or language learning purposes only