Home » # » 5 Seconds Of Summer »

5 Seconds Of Summer - San Francisco Tabs

Artists:  A B C D E F G H I J K L M N O P Q R S T U V W X Y Z # 

San Francisco Tabs

(ver. 1) Click to play this song!
5 Seconds Of Summer
Listen to song for strum pattern.

[Intro]

e|-0------0------0------0--------|
B|-0------0------0------0--------|
G|-1------4------6------2--------|
D|-2------4------6------2--------|
A|-2------2------4------0--------|
E|-0-----------------------------|

[Verse]

e|-0------0------0------0--------|
B|-0------0------0------0--------|
G|-9------9------6------2--------|
D|-9------9------6------2--------|
A|-7------6------4------0--------|
E|-------------------------------|


[Pre-Chorus]
                                          End
e|-0------0-------0-------0----------|-----0-----|
B|-0------0-------0-------0----------|-----0-----|
G|-2------4-------4-------6----------|-----5-----|
D|-2------4-------6-------7----------|-----7-----|
A|-0------2-------6-------7----------|-----7-----|
E|----------------4-------5----------|-----5-----|


[Chorus]

e|-0------0------0------0--------|
B|-0------0------0------0--------|
G|-1------4------6------2--------|
D|-2------4------6------2--------|
A|-2------2------4------0--------|
E|-0-----------------------------|

Repeat Verse
Repeat Pre-Chorus
Repeat Chorus

[Bridge]

e|-------------------------------|
B|-------------------------------|
G|-1------4------2------2--------|
D|-2------4------4------2--------|
A|-2------2------4------0--------|
E|-0-------------2---------------|
P.M..............................

Single Strum Each Chord
e|-0------0------0------0--------|
B|-0------0------0------0--------|
G|-1------4------6------2--------|
D|-2------4------6------2--------|
A|-2------2------4------0--------|
E|-0-----------------------------|

[Outro]

e|-0------0------0------0--------|
B|-0------0------0------0--------|
G|-1------4------6------2--------|
D|-2------4------6------2--------|
A|-2------2------4------0--------|
E|-0-----------------------------|

e|-0------0------0------0--------|
B|-0------0------0------0--------|
G|-1------4------2------2--------|
D|-2------4------4------2--------|
A|-2------2------4------0--------|
E|-0-------------2---------------|

End with
e|-0----|
B|-0----|
G|-1----|
D|-2----|
A|-2----|
E|-0----|
            
Submit corrections

↑ Back to top | Tablatures and chords for acoustic guitar and electric guitar, ukulele, drums are parodies/interpretations of the original songs. You may use it for private study, scholarship, research or language learning purposes only