Home » # » 5 Seconds Of Summer »

5 Seconds Of Summer - No Shame Bass

Artists:  A B C D E F G H I J K L M N O P Q R S T U V W X Y Z # 

No Shame Bass

(ver. 1) Click to play this song!
5 Seconds Of Summer
[Intro] 0:00
 
 
 
[Verse 1] 0:10
Angel, with the gun in your hand.....
G|--------------------------------------------------5------------------------|
D|-----5---------------12-------------1--------------------------------------|
A|---------------------------------------------------------------------------|
E|---------------------------------------------------------------------------|
 
G|--------------------------------------------------5------------------------|
D|-----5---------------12-------------1--------------------------------------|
A|---------------------------------------------------------------------------|
E|---------------------------------------------------------------------------|
 
 
[Pre-Chorus] 0:30
Go on and light me like a cigarette...
G|--------------------------------------------------5------------------------|
D|-----5---------------12-------------1--------------------------------------|
A|---------------------------------------------------------------------------|
E|---------------------------------------------------------------------------|
 
 
 
[Chorus] 0:41
I only light up when cameras are flashing....
G|---------------------------------------------------------5--5--5--5------------|
D|---5--5--5--5-----12---12---12---12------1--1--1--1----------------------------|
A|-------------------------------------------------------------------------------|
E|-------------------------------------------------------------------------------|
 
G|---------------------------------------------------------5--5--5--5------------|
D|---5--5--5--5-----12---12---12---12------1--1--1--1----------------------------|
A|-------------------------------------------------------------------------------|
E|-------------------------------------------------------------------------------|
 
 
[Verse 2] 1:03
Lay me in the palm of your hand...
G|--------------------------------------------------5------------------------|
D|-----5---------------12-------------1--------------------------------------|
A|---------------------------------------------------------------------------|
E|---------------------------------------------------------------------------|
 
G|--------------------------------------------------5------------------------|
D|-----5---------------12-------------1--------------------------------------|
A|---------------------------------------------------------------------------|
E|---------------------------------------------------------------------------|
 
[Chorus] 1:24
I only light up when cameras are flashing....
G|---------------------------------------------------------5--5--5--5------------|
D|---5--5--5--5-----12---12---12---12------1--1--1--1----------------------------|
A|-------------------------------------------------------------------------------|
E|-------------------------------------------------------------------------------|
 
G|---------------------------------------------------------5--5--5--5------------|
D|---5--5--5--5-----12---12---12---12------1--1--1--1----------------------------|
A|-------------------------------------------------------------------------------|
E|-------------------------------------------------------------------------------|
 
[Post-Chorus] 1:45
I love the way youre screaming my name....
G|---------------------------------------------------------5--5--5--5------------|
D|---5--5--5--5-----12---12---12---12------1--1--1--1----------------------------|
A|-------------------------------------------------------------------------------|
E|-------------------------------------------------------------------------------|
 
G|---------------------------------------------------------5--5--5--5------------|
D|---5--5--5--5-----12---12---12---12------1--1--1--1----------------------------|
A|-------------------------------------------------------------------------------|
E|-------------------------------------------------------------------------------|
 
 
 
[Bridge] 2:06
Go on and light me like a cigarette.....
G|--------------------------------------------------5------------------------|
D|-----5---------------12-------------1--------------------------------------|
A|---------------------------------------------------------------------------|
E|---------------------------------------------------------------------------|
 
G|--------------------------------------------------5------------------------|
D|-----5---------------12-------------1--------------------------------------|
A|---------------------------------------------------------------------------|
E|---------------------------------------------------------------------------|
 
 
 
 
[Chorus] 2:27
I only light up when cameras are flashing....
G|---------------------------------------------------------5--5--5--5------------|
D|---5--5--5--5-----12---12---12---12------1--1--1--1----------------------------|
A|-------------------------------------------------------------------------------|
E|-------------------------------------------------------------------------------|
 
G|---------------------------------------------------------5--5--5--5------------|
D|---5--5--5--5-----12---12---12---12------1--1--1--1----------------------------|
A|-------------------------------------------------------------------------------|
E|-------------------------------------------------------------------------------|
 
 
[Outro] 2:48
I love the way your scremaing my name........
G|---------------------------------------------------------5--5--5--5------------|
D|---5--5--5--5-----12---12---12---12------1--1--1--1----------------------------|
A|-------------------------------------------------------------------------------|
E|-------------------------------------------------------------------------------|
 
G|---------------------------------------------------------5--5--5--5------------|
D|---5--5--5--5-----12---12---12---12------1--1--1--1----------------------------|
A|-------------------------------------------------------------------------------|
E|-------------------------------------------------------------------------------|
            
Submit corrections

↑ Back to top | Tablatures and chords for acoustic guitar and electric guitar, ukulele, drums are parodies/interpretations of the original songs. You may use it for private study, scholarship, research or language learning purposes only