» » »

30 Seconds To Mars - 100 Suns Tabs

Artists:  A B C D E F G H I J K L M N O P Q R S T U V W X Y Z # 

100 Suns Tabs

(ver. 3) Click to play this song!
30 Seconds To Mars
 Rating:
4/5 (4 votes)

 100 Suns lessons Tabs too difficult? Try these video lessons and learn fast
 
                -------------------------------------------------------------------------------
                                           100 Suns - 30 Seconds To Mars
-------------------------------------------------------------------------------

Tuning: Half-Step Down

e|----------------------------------------------------------------------------|
B|----------------------------------------------------------------------------|
G|-11-11-11-11-11-11-11-11--6-6-6-6-6-6-6-6--8-8-8-8-8-8-8-8--4-4-4-4-4-4-4-4-|
D|-11-11-11-11-11-11-11-11--6-6-6-6-6-6-6-6--8-8-8-8-8-8-8-8--4-4-4-4-4-4-4-4-|
A|-9--9--9--9--9--9---9--9--4-4-4-4-4-4-4-4--6-6-6-6-6-6-6-6--2-2-2-2-2-2-2-2-|
E|----------------------------------------------------------------------------|
              I believe in nothing...Not the end and not the start

e|----------------------------------------------------------------------------|
B|----------------------------------------------------------------------------|
G|-11-11-11-11-11-11-11-11--6-6-6-6-6-6-6-6--8-8-8-8-8-8-8-8------------------|
D|-11-11-11-11-11-11-11-11--6-6-6-6-6-6-6-6--8-8-8-8-8-8-8-8--6-6-6-6--8~-----|
A|--9-9--9--9--9--9---9--9--4-4-4-4-4-4-4-4--6-6-6-6-6-6-6-6--6-6-6-6--8~-----|
E|------------------------------------------------------------4-4-4-4--6~-----|
              I believe in nothing...Not the earth and not the stars

e|----------------------------------------------------------------------------|
B|----------------------------------------------------------------------------|
G|-11-11-11-11-11-11-11-11--6-6-6-6-6-6-6-6--8-8-8-8-8-8-8-8--4-4-4-4-4-4-4-4-|
D|-11-11-11-11-11-11-11-11--6-6-6-6-6-6-6-6--8-8-8-8-8-8-8-8--4-4-4-4-4-4-4-4-|
A|--9--9--9--9--9--9--9--9--4-4-4-4-4-4-4-4--6-6-6-6-6-6-6-6--2-2-2-2-2-2-2-2-|
E|----------------------------------------------------------------------------|
              I believe in nothing...Not the day or not the dark


e|----------------------------------------------------------------------------|
B|----------------------------------------------------------------------------|
G|-11-11-11-11-11-11-11-11--6-6-6-6-6-6-6-6--8-8-8-8-8-8-8-8------------------|
D|-11-11-11-11-11-11-11-11--6-6-6-6-6-6-6-6--8-8-8-8-8-8-8-8--6-6-6-6--8~-----|
A|-9--9--9--9--9--9---9--9--4-4-4-4-4-4-4-4--6-6-6-6-6-6-6-6--6-6-6-6--8~-----|
E|------------------------------------------------------------4-4-4-4--6~-----|
              I believe in nothing...But the beating of our hearts

e|----------------------------------------------------------------------------|
B|----------------------------------------------------------------------------|
G|-11-11-11-11-11-11-11-11--6-6-6-6-6-6-6-6--8-8-8-8-8-8-8-8--4-4-4-4-4-4-4-4-|
D|-11-11-11-11-11-11-11-11--6-6-6-6-6-6-6-6--8-8-8-8-8-8-8-8--4-4-4-4-4-4-4-4-|
A|-9--9--9--9--9--9---9--9--4-4-4-4-4-4-4-4--6-6-6-6-6-6-6-6--2-2-2-2-2-2-2-2-|
E|----------------------------------------------------------------------------|
              I believe in nothing...100 suns until we part

e|----------------------------------------------------------------------------|
B|----------------------------------------------------------------------------|
G|-11-11-11-11-11-11-11-11--6-6-6-6-6-6-6-6--8-8-8-8-8-8-8-8------------------|
D|-11-11-11-11-11-11-11-11--6-6-6-6-6-6-6-6--8-8-8-8-8-8-8-8--6-6-6-6--8~-----|
A|--9--9--9--9--9--9--9--9--4-4-4-4-4-4-4-4--6-6-6-6-6-6-6-6--6-6-6-6--8~-----|
E|------------------------------------------------------------4-4-4-4--6~-----|
              I believe in nothing...Not in sin and not in God


e|----------------------------------------------------------------------------|
B|----------------------------------------------------------------------------|
G|-11-11-11-11-11-11-11-11--6-6-6-6-6-6-6-6--8-8-8-8-8-8-8-8--4-4-4-4-4-4-4-4-|
D|-11-11-11-11-11-11-11-11--6-6-6-6-6-6-6-6--8-8-8-8-8-8-8-8--4-4-4-4-4-4-4-4-|
A|--9--9--9--9--9--9--9--9--4-4-4-4-4-4-4-4--6-6-6-6-6-6-6-6--2-2-2-2-2-2-2-2-|
E|----------------------------------------------------------------------------|
              I believe in nothing...Not in peace and not in war

e|----------------------------------------------------------------------------|
B|----------------------------------------------------------------------------|
G|-11-11-11-11-11-11-11-11--6-6-6-6-6-6-6-6--8-8-8-8-8-8-8-8------------------|
D|-11-11-11-11-11-11-11-11--6-6-6-6-6-6-6-6--8-8-8-8-8-8-8-8--6-6-6-6--8~-----|
A|--9--9--9--9--9--9--9--9--4-4-4-4-4-4-4-4--6-6-6-6-6-6-6-6--6-6-6-6--8~-----|
E|------------------------------------------------------------4-4-4-4--6~-----|
              I believe in nothing...But the truth in who we are...



Then just do the same thing until fade...


************************************

| /   slide up
| \   slide down
| h   hammer-on
| p   pull-off
| ~   vibrato
| +   harmonic
| x   Mute note
| b   Bend
| pb  Pre-bend
| br  Bend release
| pbr Pre-bend release
| brb Bend release bend

************************************
            
Submit corrections


        100 Suns lessons Hard to play? Try these video lessons and learn fast 100 Suns lessons
        
↑ Back to top | Tablatures and chords for acoustic guitar and electric guitar, ukulele, drums are parodies/interpretations of the original songs. You may use it for private study, scholarship, research or language learning purposes only