» » »

30 Seconds To Mars - 100 Suns Tabs

Artists:  A B C D E F G H I J K L M N O P Q R S T U V W X Y Z # 

100 Suns Tabs

(ver. 2) Click to play this song!
30 Seconds To Mars
 Rating:
4.8/5 (19 votes)

 100 Suns lessons Tabs too difficult? Try these video lessons and learn fast
 
                Possibly the best album I’ve ever bought...

This Is War Is amazing!!!  100 Suns is a very simple song to sing and play, but is 
emotive and has a great impact with the people from the public recording backing it.

Hope you like my tab.  Didn't take long however once again fun to play and sing =]

You Know You’ve Got It Coming... This Is War  ₪  ø  lll  •o.

Acoustic Guitar
e|-----------------------------------------------------|
B|-----------------------------------------------------|
G|--------6--------8--------11------6------------------|
D|--4-----6-X8-----8-X8-----11-X8---6------------------|
A|--4-X8--4--------6--------9-------4------------------|
E|--2--------------------------------------------------|


e|----------------------------------------------------|
B|----------------------------------------------------|
G|--------6--------8----------------------------------|
D|--4-----6-X8-----8-X8-----6--------8----------------|
A|--4-X8--4--------6--------6-X4-----8-X4-------------|
E|--2-----------------------4--------6----------------|
                           ---------/
(sometimes the last chord / there is just played once and rings out =]

Repeat that over the whole song =]

Enjoy the album if your smart enough to have bought it =]

Provehito In Altum...
            
Submit corrections


        100 Suns lessons Hard to play? Try these video lessons and learn fast 100 Suns lessons
        
↑ Back to top | Tablatures and chords for acoustic guitar and electric guitar, ukulele, drums are parodies/interpretations of the original songs. You may use it for private study, scholarship, research or language learning purposes only