» » »

2 Minutos - Ya No Sos Igual Tabs

Artists:  A B C D E F G H I J K L M N O P Q R S T U V W X Y Z # 

Ya No Sos Igual Tabs

(ver. 2) Click to play this song!
2 Minutos
 Rating:
3.7/5 (6 votes)

 Ya No Sos Igual lessons Tabs too difficult? Try these video lessons and learn fast
 
                2 minutos 
YA NO SOS IGUAL


entrada

6---------------------
5---------------------
4---------------------
3--5--5------2--2-----
2---------------------
1-------3--3------1---

despues le das un pequeno rasgueo a la 6ta cuerda y luego.....

tapado:
  .........................................................................
6---------------------8-8-8-8-8-8-8-8-8--10-10-10-10-10-10--6-6-6-6-6-6-6-6---
5--8-8-8-8-8-8-8-8-8--101010101010101010-121212121212121212-8-8-8-8-8-8-8-8---
4--101010101010101010---------------------------------------------------------
3-----------------------------------------------------------------------------
2-----------------------------------------------------------------------------
1-----------------------------------------------------------------------------

  .....................................
6---------------------8-8-8-8-8-8-8-8-8---8/10-10-10/6/8--8----
5--8-8-8-8-8-8-8-8-8--101010101010101010-10/12-12--8/8/10-10---
4--101010101010101010--------------------10/12-12--8/8/10-10--- /:se desliza
3--------------------------------------------------------------
2--------------------------------------------------------------
1--------------------------------------------------------------

verso x3

6--1-1-1-1-1-1-1-1-1--8-8-8-8-8-8-8-8-8--10-10-10-10-10-10-10--6-6-6-6-6-6-6---
5--3-3-3-3-3-3-3-3-3--101010101010101010-12-12-12-12-12-12-12--8-8-8-8-8-8-8---
4--3-3-3-3-3-3-3-3-3--101010101010101010-12-12-12-12-12-12-12--8-8-8-8-8-8-8---
3------------------------------------------------------------------------------
2------------------------------------------------------------------------------
1------------------------------------------------------------------------------

coro: el coro es lo mismo

 que el verso y tambien en el coro hay una pequena parte que es asi.....
que me gusta llamarlo PUENTE

6--6-6-6-6-6--8-8-8-8-8-----------------------------
5--8-8-8-8-8--1010101010-7/8-8-8-8-8--7/8-8-8-8-8---  PUENTE
4--8-8-8-8-8--1010101010-9/1010101010-9/1010101010--
3------------------------9/1010101010-9/1010101010-- x3
2---------------------------------------------------
1---------------------------------------------------

luego esta el REQUINTO O SOLO pero es lo mismo que la entrada nada mas que tienes
que hacerlo varias veces

luego repites el PUENTE

luego haces otro VERSO y otro CORO y otro PUENTE

luego....

6--1--8--10--6---
5--3--10--12-8---
4--3--10--12-8---
3---------------- x2
2----------------
1----------------

luego repites eso pero mas rapido 

y por ultimo haces el PUENTE x2 pero mas rapido tambien y termina asi.....

final

6------
5--8---
4--10--
3--10--
2------
1------
            
Submit corrections


        Ya No Sos Igual lessons Hard to play? Try these video lessons and learn fast Ya No Sos Igual lessons
        
↑ Back to top | Tablatures and chords for acoustic guitar and electric guitar, ukulele, drums are parodies/interpretations of the original songs. You may use it for private study, scholarship, research or language learning purposes only