» » »

12 Stones - Tomorrow Comes Today Tabs

Artists:  A B C D E F G H I J K L M N O P Q R S T U V W X Y Z # 

Tomorrow Comes Today Tabs

(ver. 3) Click to play this song!
12 Stones
 Rating:
4/5 (4 votes)

 Tomorrow Comes Today lessons Tabs too difficult? Try these video lessons and learn fast
 
                Tuning:   Dropped D (DADGBE)
Tabbe by: Phoenix94

This is one of my favourite songs from 12 Stones
and it's awesome to play. So have fun!

Words and Music by 12 Stones
Arranged by 12 Stones
 

Guitar I (D A D G B E) - 'Eric Weaver'
Guitar II (D A D G B E) - 'Justin Rimer'
-----------------------------------------------------------------------------

----------------
Intro
----------------

Guitar 1 Eric Weaver (clean)
E|-------------5-----|
B|---3---5-3-----3---|
G|-2---2-----2-------| x3
D|-------------------|
A|-------------------|
D|-------------------|

Guitar 2 Justin Rimer (Slightly Distorted)
All notes palm muted
E|-------------------|
B|-------------------|
G|-------------------|
D|-------------------| 
A|-------------------| x2
D|-0-0-0-0-0-0-0-0---|


----------------
Verse 1
----------------

Guitar 1 Eric Weaver (clean)
E|-------------5-----|
B|---3---5-3-----3---|
G|-2---2-----2-------| x15
D|-------------------|
A|-------------------|
D|-------------------|

Guitar 2 Justin Rimer (Slightly Distorted)
All notes palm muted
E|-------------------|
B|-------------------|
G|-------------------|
D|-------------------| 
A|-------------------| *Play each note 16 times
D|-0---7---9---5-----|

Guitar 2 Justin Rimer (Distorted)
All notes palm muted except the 10
E|-------------------|          10
B|-------------------|
G|-------------------|
D|-------------------| 
A|-------------10----| *Play each note 16 times
D|-0---7---9---10----|


   Alone I face the sun
   The burning has begun
   I live to find a way
   A never ending faith
   My heart is on display
   And I long to find a place
   For light to shine right through
   All of the shadows on my face

----------------
Chorus
----------------

Guitar 1 Eric Weaver (clean)
E|-------------------|
B|---7---8-7---10-7--|
G|-7---7-----7-------| x8
D|-------------------| 
A|-------------------|
D|-------------------|

Guitar 2 Justin Rimer (Heavy Distorted)
E|-------------------|
B|-------------------|
G|-------------------|
D|-0---7---9---5-----| 
A|-0---7---9---5-----| *Play each chord 16 times
D|-0---7---9---5-----|


   So shine for me as one
   Cast a shadow on the sun
   The light to find my way
   I hope tomorrow comes today

----------------
Verse 2
----------------

Guitar 1 Eric Weaver (clean)
E|-------------5-----|
B|---3---5-3-----3---|
G|-2---2-----2-------| x15
D|-------------------|
A|-------------------|
D|-------------------|

Guitar 2 Justin Rimer (Distorted)
All notes palm muted
E|-------------------|
B|-------------------|
G|-------------------|
D|-------------------| 
A|-------------------| *Play each note 16 times
D|-0---7---9---5-----|

Guitar 2 Justin Rimer (Distorted)
All notes palm muted except the 10
E|-------------------|          10
B|-------------------|
G|-------------------|
D|-------------------| 
A|-------------10----| *Play each note 16 times
D|-0---7---9---10----|

   Another day goes by
   Alone I wonder why
   Beginning seems so close
   And endings fade away
   So difficult for anyone to see
   I barely recognize this image of me
   I'm trying to hide the scars
   All of them blistering on me

----------------
Chorus
----------------

Guitar 1 Eric Weaver (clean)
E|-------------------|
B|---7---8-7---10-7--|
G|-7---7-----7-------| x16
D|-------------------| 
A|-------------------|
D|-------------------|

Guitar 2 Justin Rimer (Heavy Distorted)
E|-------------------|
B|-------------------|
G|-------------------|
D|-0---7---9---5-----| x2
A|-0---7---9---5-----| *Play each chord 16 times
D|-0---7---9---5-----|

   So shine for me as one
   Cast a shadow on the sun
   The light to find my way
   I hope tomorrow comes today
   And I won't be the one
   A shadow on the sun
   A light to find the way
   Because tomorrow comes today

----------------
Bridge
----------------

Guitar 1 Eric Weaver (Distorted)
E|-----------------------------------|
B|-----------------------------------|
G|------------------7-7-7-7-7-7-7-7--|
D|--2-2-2-2-2-2-2-2------------------|
A|-----------------------------------|
D|-----------------------------------|

E|-----------------------------------|
B|-----------------------------------|
G|-----------------------------------|
D|-7-7-7-7-7-7-7-7-------------------|
A|-----------------7-7-7-7-7-7-7-7---|
E|-----------------------------------|

E|--------------------------------------------------|
B|--------------------------------------------------|
G|-----------------7-7-7-7-7-7-7-7------------------|
D|-2-2-2-2-2-2-2-2-----------------7-7-7-7-7-7-7-7--|
A|--------------------------------------------------|
E|--------------------------------------------------|

E|--------------------------------------|
B|-----------------7-7-8-8-10-10-10-10--|
G|-6-6-7-7-9-9-9-9----------------------|
d|--------------------------------------|
A|--------------------------------------|
D|--------------------------------------|


Guitar 2 Justin Rimer (Heavy Distorted)
E|-------------------|
B|-------------------|
G|-------------------|
D|-2---5---0---7-----| x2
A|-2---5---0---7-----| *Play each chord 8 times
D|-2---5---0---7-----| *Hold the 7 chord after the second time
                                 7  
                                 7

   And I have the strength to overcome
   I have the will to carry on
   I'm not scared to face this world on my own
   On my own
                                 
----------------
Breakdown
----------------

Guitar 1 Eric Weaver (clean)
E|-------------5-----|
B|---3---5-3-----3---|
G|-2---2-----2-------| x8
D|-------------------|
A|-------------------|
D|-------------------|

   Alone I face the sun
   The burning has begun
   A light is shining through
   And it brings me back to you

----------------
Chorus
----------------

Guitar 1 Eric Weaver (clean)
E|-------------------|
B|---7---8-7---10-7--|
G|-7---7-----7-------| x16
D|-------------------| 
A|-------------------|
D|-------------------|

Guitar 2 Justin Rimer (Heavy Distorted)
E|-------------------|
B|-------------------|
G|-------------------|
D|-0---7---9---5-----| x2
A|-0---7---9---5-----| *Play each chord 16 times
D|-0---7---9---5-----|

   So shine for me as one
   Cast a shadow on the sun
   The light to find my way
   I hope tomorrow comes today
   And I won't be the one
   A shadow on the sun
   A light to find the way
   Because tomorrow comes today

----------------
Solo
----------------

Guitar 1 Eric Weaver (Distorted)
E|-------------------|
B|-------------------| 
G|-7-7-7-6-6-6-7-7---| 
D|-x-x-x-x-x-x-x-x---| x2
A|-5-5-5-4-4-4-5-5---|
D|-------------------|

E|---------------------------|
B|---------------------------| 
G|-14-14-14-12-12-12-11-11---| 
D|-x--x--x--x--x--x--x--x----| x2
A|-12-12-12-10-10-10-9--9----|
D|---------------------------|

E|-------------------------------------|
B|-------------------------------------|
G|-6-6-6-6/9--7-7-7--6-6-6-6/9--7-7-7--|
d|-x-x-x-x----x-x-x--x-x-x-x----x-x-x--| x2
A|-4-4-4-4/7--5-5-5--4-4-4-4/7--5-5-5--|
D|-------------------------------------|

E|---------------------------|
B|---------------------------| 
G|-14-14-14-12-12-12-11-11---| 
D|-x--x--x--x--x--x--x--x----| x2
A|-12-12-12-10-10-10-9--9----|
D|---------------------------|

Guitar 2 Justin Rimer (Heavy Distorted)
While Guitar 1 plays the solo
E|-------------------|
B|-------------------|
G|-------------------|
D|-0---7---9---5-----| 
A|-0---7---9---5-----| *Play each chord 16 times
D|-0---7---9---5-----|

   I hope tomorrow comes today

----------------
Outro
----------------

Guitar 1 Eric Weaver (Distorted)
E|-------------------|
B|-------------------| 
G|-7~----------------| 
D|-x-----------------| 
A|-5~----------------|
D|-0~----------------|

Guitar 2 Justin Rimer (Heavy Distorted)
E|-------------------|
B|-------------------| 
G|-------------------| 
D|-0~----------------| 
A|-0~----------------|
D|-0~----------------|

   I hope tomorrow comes today

-----------------------------------------------------------------------------
Tablature Legend
-----------------------------------------------------------------------------
 h   - hammer-on
 p   - pull-off
 b   - bend
 pb  - pre-bend
 r   - bend release (if no number after the r, then release immediately)
 /\  - slide into or out of (from/to "nowhere")
 s   - legato slide
 S   - shift slide
 - natural harmonic
[n]  - artificial harmonic
n(n) - tapped harmonic
 ~   - vibrato
 tr  - trill
 T   - tap
 TP  - trem. picking
 PM  - palm muting
\n/  - tremolo bar dip; n = amount to dip
 \n  - tremolo bar down
 n/  - tremolo bar up
/n\  - tremolo bar inverted dip
 =   - hold bend; also acts as connecting device for hammers/pulls
 <> - volume swell (louder/softer)
 x   - on rhythm slash represents muted slash
 o   - on rhythm slash represents single note slash
-----------------------------------------------------------------------------


It's a pretty easy and awesome song to jam around with.
Have fun, and keep rockin!!
            
Submit corrections


        Tomorrow Comes Today lessons Hard to play? Try these video lessons and learn fast Tomorrow Comes Today lessons
        
↑ Back to top | Tablatures and chords for acoustic guitar and electric guitar, ukulele, drums are parodies/interpretations of the original songs. You may use it for private study, scholarship, research or language learning purposes only