» » »

12 Stones - Tomorrow Comes Today Tabs

Artists:  A B C D E F G H I J K L M N O P Q R S T U V W X Y Z # 

Tomorrow Comes Today Tabs

(ver. 1) Click to play this song!
12 Stones
 Rating:
4/5 (4 votes)

 Tomorrow Comes Today lessons Tabs too difficult? Try these video lessons and learn fast
 
                Tuning: Drop D (DAdGBE)

| .  palm-mute
| /  slide up
| ~  let ring

UPDATE: After these first three rates, I posted the rhythm and changed a few 
things around. Hope you enjoy and rate the new tab!


Great song. All I have to say is enjoy. :) (And that all parts are played with 
distortion except for the intro riff.)

[Intro Riff]
{Part 1} Clean               {Part 2} Extra crunchy (but quiet) guitar
E|--------------------|      E|-------------------|
B|--------------10----|      B|-------------------|
G|----7---9-7------7--| x2   G|-------------------| x2
d|--7---7-----7-------|      d|-------------------|
A|--------------------|      A|----5---5-5-5-5-5--|
D|--------------------|      D|--0---0-0-0-0-0-0--|
                                 ...............

[Verse 1] Continue playing Part 1 of the Intro Riff thru the verse. Quietly play this behind it.
E|-------------------------------------------------------------------|
B|-------------------------------------------------------------------|
G|-------------------------------------------------------------------|
d|----------------------------------7-7-7-7-7-7-7-7-7-7-7-7-7-7-7-7--|      
A|----5---5-5-5-5-5-5-5-5-5-5-5-5-5-x-x-x-x-x-x-x-x-x-x-x-x-x-x-x-x--|    
D|--0---0-0-0-0-0-0-0-0-0-0-0-0-0-0-7-7-7-7-7-7-7-7-7-7-7-7-7-7-7-7--|
    ...............................................................
E|-------------------------------------------------------------------|
B|-------------------------------------------------------------------|
G|-------------------------------------------------------------------|
d|--9-9-9-9-9-9-9-9-9-9-9-9-9-9-9-9-5-5-5-5-5-5-5-5-5-5-5-5-5-5-5-5--|      
A|--x-x-x-x-x-x-x-x-x-x-x-x-x-x-x-x-x-x-x-x-x-x-x-x-x-x-x-x-x-x-x-x--|    
D|--9-9-9-9-9-9-9-9-9-9-9-9-9-9-9-9-5-5-5-5-5-5-5-5-5-5-5-5-5-5-5-5--|
    ...............................................................

Guitar comes in at full volume here
E|-------------------------------------------------------------------|
B|-------------------------------------------------------------------|
G|-------------------------------------------------------------------|
d|----------------------------------7-7-7-7-7-7-7-7-7-7-7-7-7-7-7-7--|      
A|--5-5-5-5-5-5-5-5-5-5-5-5-5-5-5-5-x-x-x-x-x-x-x-x-x-x-x-x-x-x-x-x--|    
D|--0-0-0-0-0-0-0-0-0-0-0-0-0-0-0-0-7-7-7-7-7-7-7-7-7-7-7-7-7-7-7-7--|
    ................................................................
                                     \/-- - - - - -Tens- - - - - --\/
E|--------------------------------------------------------------------|
B|--------------------------------------------------------------------|
G|--------------------------------------------------------------------|
d|--9-9-9-9-9-9-9-9-9-9-9-9-9-9-9-9-------------------------10101010--|
A|--x-x-x-x-x-x-x-x-x-x-x-x-x-x-x-x-10101010101010101010101010101010--|    
D|--9-9-9-9-9-9-9-9-9-9-9-9-9-9-9-9-10101010101010101010101010101010--|
    .........................................................


[Chorus] Repeat both parts as necessary.
{Part 1}
E|-----------------------------------------------------------------------| 
B|-----------------------------------------------------------------------|   
G|-----------------------------------------------------------------------|
d|--0000000000000000-7777777777777777-9999999999999999-5555555555555555--|   
A|--0000000000000000-7777777777777777-9999999999999999-5555555555555555--|
D|--0000000000000000-7777777777777777-9999999999999999-5555555555555555--|

{Part 2}
E|--------------------|
B|----7---8-7---10-7--|
G|--7---7-----7-------|
d|--------------------|
A|--------------------|
D|--------------------|


[Verse 2] Includes the Intro Riff. This is mostly in the background.
E|-------------------------------------------------------------------|
B|-------------------------------------------------------------------|
G|-------------------------------------------------------------------|
d|----------------------------------7-7-7-7-7-7-7-7-7-7-7-7-7-7-7-7--|      
A|--5-5-5-5-5-5-5-5-5-5-5-5-5-5-5-5-x-x-x-x-x-x-x-x-x-x-x-x-x-x-x-x--|    
D|--0-0-0-0-0-0-0-0-0-0-0-0-0-0-0-0-7-7-7-7-7-7-7-7-7-7-7-7-7-7-7-7--|
    ...............................................................
E|-------------------------------------------------------------------|
B|-------------------------------------------------------------------|
G|-------------------------------------------------------------------|
d|--9-9-9-9-9-9-9-9-9-9-9-9-9-9-9-9-5-5-5-5-5-5-5-5-5-5-5-5-5-5-5-5--|      
A|--x-x-x-x-x-x-x-x-x-x-x-x-x-x-x-x-x-x-x-x-x-x-x-x-x-x-x-x-x-x-x-x--|    
D|--9-9-9-9-9-9-9-9-9-9-9-9-9-9-9-9-5-5-5-5-5-5-5-5-5-5-5-5-5-5-5-5--|
    ...............................................................

E|-------------------------------------------------------------------|
B|-------------------------------------------------------------------|
G|-------------------------------------------------------------------|
d|----------------------------------7-7-7-7-7-7-7-7-7-7-7-7-7-7-7-7--|      
A|--5-5-5-5-5-5-5-5-5-5-5-5-5-5-5-5-x-x-x-x-x-x-x-x-x-x-x-x-x-x-x-x--|    
D|--0-0-0-0-0-0-0-0-0-0-0-0-0-0-0-0-7-7-7-7-7-7-7-7-7-7-7-7-7-7-7-7--|
    ................................................................
                                     \/-- - - - - -Tens- - - - - --\/
E|--------------------------------------------------------------------|
B|--------------------------------------------------------------------|
G|--------------------------------------------------------------------|
d|--9-9-9-9-9-9-9-9-9-9-9-9-9-9-9-9-------------------------10101010--|
A|--x-x-x-x-x-x-x-x-x-x-x-x-x-x-x-x-10101010101010101010101010101010--|    
D|--9-9-9-9-9-9-9-9-9-9-9-9-9-9-9-9-10101010101010101010101010101010--|
    .........................................................


[Bridge] Once these parts are done, just play the Intro Riff
{Part 1}
E|---------------------------------------|
B|---------------------------------------|
G|---------------------------------------| x2
d|--22222222-55555555-00000000-77777777--|
A|--22222222-55555555-00000000-77777777--|
D|--22222222-55555555-00000000-77777777--|

{Part 2} Background guitar
E|--------------------------------------------------------------------|
B|--------------------------------------------------------------------|
G|------------------/7-7-7-7-7-7-7-7----------------------------------|
d|--2-2-2-2-2-2-2-2------------------7-7-7-7-7-7-7-7-2-2-2-2-2-2-2-2--|
A|--------------------------------------------------------------------|
D|--------------------------------------------------------------------|

e|----------------------------------------------------|
B|----------------------------------------------------|
G|------------------/7-7-7-7-7-7-7-7------------------|
D|--2-2-2-2-2-2-2-2------------------7-7-7-7-7-7-7-7--|
A|----------------------------------------------------|
E|----------------------------------------------------|

E|---------------------------------------|
B|------------------7-7-8-8-10-10-10-10--|
G|--6-6-7-7-9-9-9-9----------------------|
d|---------------------------------------|
A|---------------------------------------|
D|---------------------------------------|


[Outro]
{Part 1}
E|--------------------------------------------------------------------------|
B|--------------------------------------------------------------------------|
G|--------------------------------------------------------------------------|
d|-0000000000000000-7777777777777777-9999999999999999-5555555555555555--0~--|
A|-0000000000000000-7777777777777777-9999999999999999-5555555555555555--0~--|
D|-0000000000000000-7777777777777777-9999999999999999-5555555555555555--0~--|

{Part 2}
E|---------------------------------------------------------|
B|---------------------------------------------------------|
G|--7-7-7-6-6/7-7--7-7-7-6-6/7-7--14-14-14-12-12-12-11-11--|
d|--x-x-x-x-x---x--x-x-x-x-x---x--x--x--x--x--x--x--x--x---|
A|--5-5-5-4-4/5-5--5-5-5-4-4/5-5--12-12-12-10-10-10-9--9---|
D|---------------------------------------------------------|

E|---------------------------------------------------------------|
B|---------------------------------------------------------------|
G|--14-14-14-12-12-12-11-11--6-6-6-6/9--7-7-7--6-6-6-6/9--7-7-7--|
d|--x--x--x--x--x--x--x--x---x-x-x-x----x-x-x--x-x-x-x----x-x-x--|
A|--12-12-12-10-10-10-9--9---4-4-4-4/7--5-5-5--4-4-4-4/7--5-5-5--|
D|---------------------------------------------------------------|

E|---------------------------------------------------------|
B|---------------------------------------------------------|
G|--14-14-14-12-12-12-11-11--14-14-14-12-12-12-11-11--11~--|
d|--x--x--x--x--x--x--x--x---x--x--x--x--x--x--x--x---x----|
A|--12-12-12-10-10-10-9--9---12-12-12-10-10-10-9--9---9~---|
D|---------------------------------------------------------|

Done. God bless. :)
            
Submit corrections


        Tomorrow Comes Today lessons Hard to play? Try these video lessons and learn fast Tomorrow Comes Today lessons
        
↑ Back to top | Tablatures and chords for acoustic guitar and electric guitar, ukulele, drums are parodies/interpretations of the original songs. You may use it for private study, scholarship, research or language learning purposes only