» » »

Zakk Wylde, Between Heaven And Hell Tabs (ver.4)

Artists:  A B C D E F G H I J K L M N O P Q R S T U V W X Y Z # 

Between Heaven And Hell Tabs (ver.4)

Zakk Wylde Tabs
 Rating:
4/5 (4 votes)
Between Heaven And Hell lessons Tabs too difficult? Try these video lessons and learn fast
1
                (Intro)
-3-------3--3----------------------0---0--0--------0-----------|
-3-------3--3-----------3----------0---0--0--------0-----------|
-0-------0--0--------------0-------2---2--2--------2--2--0-----|
-0-------0-------0------2--0-------3---------------3--3--0-----|
-----------------0------2----------3---------------3--3--0-----|
---3--3--3----------0---0----1--1--1---------0--1--1-----------|

---------3--3----------0---------0--------0-0-0-----0----------|
---------3--3----------3---------1--------1-1-1-----1----------|
---------0--0----------0----0-0--0-h-2----0-0-0-h-2-0----------|
---------0--0---0------2----0-0--3--------3-3-3-----0----------|
----------------0------2----------------------------0-h-3------|
--3--3---3---------0---0---------------------------------------|

--0-----0-0-0---------------------------------------------------------|
--1-----1-1-1---------------------------------------------------------|
--0-----0-0-0---------------------------------------------------------|
--0-h-2-2-2-2---------------------------------------------------------|
--3-----3-3-3---------------------------------------------------------|
----------------------------------------------------------------------|

I think this is right took me a few days
            
Submit corrections

comments powered by Disqus
↑ Back to top | Zakk Wylde Tabs for Between Heaven And Hell. Lyrics for acoustic guitar and electric guitar. 1 Tablatures and chords are parodies/interpretations of the original songs. You may use it for private study, scholarship, research or language learning purposes only