» » »

Hate Your Guts Tabs (ver.1)

Artists:  A B C D E F G H I J K L M N O P Q R S T U V W X Y Z # 

Hate Your Guts Tabs (ver.1)

Zakk Wylde
Rating:
5/5 (3 votes)

Hard to play? Try these video lessons and learn fast.
                


playin banjo solo with electric guitar is kinda cool too.
just tune you 1st string down to D. add some brewtal vibrato!!


  MAIN::
    G		      C			D		  G
e :-----3-3---3-3-3-|-----0-0---0-0-0-|-----2-2---2-2-2-|-----3-3---------------|
B :-----0-0---0-0-0-|-----1-1---1-1-1-|-----3-3---3-3-3-|-----0-0---------------|
G :-----0-0---0-0-0-|-0---0-0---0-0-0-|-2---2-2---2-2-2-|-----0-0-------------0-|
D :-0---0-0---0-0-0-|-2---2-2---2-2-2-|-0---0-0---0-0-0-|-0---0-0-------0-0h2---|
A :-2---2-2---2-2-2-|-3---3-3---3-3-3-|-----------------|-2---2-2---0h2---------|
E :-3---3-3---3-3-3-|-----------------|-----------------|-3---3-3---------------|


						(*FILL)
						    G
						e :-----3-----------------------|
						B :---0-0-1/3-3-3/1---0---1---0-|
						G :---0-0-2/4---4/2---0-0-2---0-|
						D :-0---0-----------0-------0---|
						A :-2---2-------0H2-------------|
						E :-3---3-----------------------|


  CHORUS::
    G		      C			D		  G
(I hate  your guts              oh I wish that you was dead
   I)
e :-----3-3---3-3-3-|-----0-0---0-0-0-|-----2-2---2-2-2-|-----3-3---------------|
B :-----0-0---0-0-0-|-----1-1---1-1-1-|-----3-3---3-3-3-|-----0-0---------------|
G :-----0-0---0-0-0-|-0---0-0---0-0-0-|-2---2-2---2-2-2-|-----0-0-------------0-|
D :-0---0-0---0-0-0-|-2---2-2---2-2-2-|-0---0-0---0-0-0-|-0---0-0-------0-0h2---|
A :-2---2-2---2-2-2-|-3---3-3---3-3-3-|-----------------|-2---2-2---0h2---------|
E :-3---3-3---3-3-3-|-----------------|-----------------|-3---3-3---------------|


    G		      C			D		  G
  (hate  your guts          youre damn right thats's what I said
      I)
e :-----3-3---3-3-3-|-----0-0---0-0-0-|-----2-2---2-2-2-|-----3---------------------|
B :-----0-0---0-0-0-|-----1-1---1-1-1-|-----3-3---3-3-3-|---0-0-1/3-3-3/1---0-------|
G :-----0-0---0-0-0-|-0---0-0---0-0-0-|-2---2-2---2-2-2-|---0-0-2/4---4/2-0---0-2-0-|
D :-0---0-0---0-0-0-|-2---2-2---2-2-2-|-0---0-0---0-0-0-|-0---0---------------0-----|
A :-2---2-2---2-2-2-|-3---3-3---3-3-3-|-----------------|-2---2------0H2------------|
E :-3---3-3---3-3-3-|-----------------|-----------------|-3---3---------------------|

    G		      C			D		  Em
(I hate  your guts             and I wish that you was dead             I'd)
e :-----3-3---3-3-3-|-----0-0---0-0-0-|-----2-2---2-2-2-|-0---0-0---0-0-0-|
B :-----0-0---0-0-0-|-----1-1---1-1-1-|-----3-3---3-3-3-|-0---0-0---0-0-0-|
G :-----0-0---0-0-0-|-0---0-0---0-0-0-|-2---2-2---2-2-2-|-0---0-0---0-0-0-|
D :-0---0-0---0-0-0-|-2---2-2---2-2-2-|-0---0-0---0-0-0-|-2---2-2---2-2-2-|
A :-2---2-2---2-2-2-|-3---3-3---3-3-3-|-----------------|-2---2-2---2-2-2-|
E :-3---3-3---3-3-3-|-----------------|-----------------|-0---0-0---0-0-0-|

   D		                   G          C     G
  (dig the hole my self......)
e :-----0--0-0--0-|-2-------------|-----3-3---0---|-3-----|
B :-----3--3-1--1-|-3-------------|-----0-0---1---|-0-----|
G :-0---0--0-0--0-|-2-------------|-----0-0---0---|-0-----|
D :-2---2--2-2--2-|-0-------------|-0---0-0---2---|-0-----|
A :-3---3--3-3--3-|---------------|-2---2-2---3---|-2-----|
E :---------------|---------------|-3---3-3-------|-3-----|






OPENING SOLO::
  w/banjo (tuning D,G,B,d)

   G		   C		  D		     G
d :---------------|---------5---|-----------7-------|-9-8-7---------|
B :-----3---5-3---|-----5-------|-------7-----7---7-|-------8-----7-|
G :-3-4---4-------|-4/5---5-----|-5/7-----7-----7---|---------------|
D :---------------|-------------|-------------------|---------------|

   G		    C		       D			G
d :----------------|---------5-------|---0---0---0---0---0---0-|-0-0-0-0----|
B :-8-x-8-x--------|-----5-----------|-3---3---3---2---2---1---|-3-2-1-0----|
G :---------9-7----|-4/5---5-------4-|-------------------------|-------0----|
D :----------------|-----------------|-------------------------|------------|



SECOND SOLO::
  w/banjo (tuning D,G,B,d)
   G    G 		  C		   D		     G
d :---|-5-0-2-0---------|-2-----5-(5)----5-|----7-----7-------|---0---0-----0-|
B :-3-|-------------3---|---0---X-(X)----X-|------7-8---7-8---|-7-----0-------|
G :---|---------3-4---4-|---0-3-5-(5)----5-|-/7-------------7-|-7---5-0-------|
D :---|-----------------|------------------|-/7---------------|-7---5---------|


   G		     C		   D			G
d :-5-0-2-0---------|-2-----------|-------0-----0---0-|-0-0-0-0-----0-|
B :-------------3---|---0---------|-X-1/3---3-2---1---|-0-0-0-0-------|
G :---------3-4---4-|-----3-5-----|-------------------|-7-6-5-4-------|
D :-----------------|-------------|-------------------|---------------|

   G			      C				D		  G
d :-9-0-8-0-7-0-5-0---------|-9-0-8-0-7-0-5-0---------|-----------------|----------|
B :-----------------6-5-4-3-|-----------------6-5-4-3-|-----3---5-3-5-6-|-(6)------|
G :-------------------------|-------------------------|-3-4---4---------|----------|
D :-------------------------|-------------------------|-----------------|----------|


   G		      C			D		  G
d :-5-0-2-0---------|-2-----5-(5)------|-----------------|-------0-----|
B :-------------3---|-------X-(X)----0-|-7---6---5---3---|-7-6-5-0-----|
G :---------3-4---4-|---0-3-5-(5)----0-|-7-X-6-X-5-X-3-X-|-7-6-5-0-----|
D :-----------------|------------------|-7---6---5---3---|-7-6-5-0-----|


   BRIDGE::

    C                               G
(whats mine whats yours is mine and thats the way its gonna be)
(if ya got a problem with thath ya little bastard dont ya come a round to
me)
e :-----0--0-0--0-|-----0--0-0--0-|-----3-3---3-3-3-|-3---------------|
B :-----3--3-1--1-|-----3--3-1--1-|-----0-0---0-0-0-|-0---------------|
G :-0---0--0-0--0-|-0---0--0-0--0-|-----0-0---0-0-0-|-0---------------|
D :-2---2--2-2--2-|-2---2--2-2--2-|-0---0-0---0-0-0-|-0-0-------------|
A :-3---3--3-3--3-|-3---3--3-3--3-|-2---2-2---2-2-2-|-2-2-5-x-4-x-3-x-|
E :---------------|---------------|-3---3-3---3-3-3-|-3-3-------------|
						      pm.

   B 					C
(now ive been doin this now        for quite a many day        oh ill)
e :-2---2-2-2-2-2-2-|-2---2-2-2-2-2-2-|-0---0--0-0--0-|-0---0--0-0--0-|
B :-4---4-4-4-4-4-4-|-4---4-4-4-4-4-4-|-1---3--3-1--1-|-1---3--3-1--1-|
G :-4---4-4-4-4-4-4-|-4---4-4-4-4-4-4-|-0---0--0-0--0-|-0---0--0-0--0-|
D :-4---4-4-4-4-4-4-|-4---4-4-4-4-4-4-|-2---2--2-2--2-|-2---2--2-2--2-|
A :-2---2-2-2-2-2-2-|-2---2-2-2-2-2-2-|-3---3--3-3--3-|-3---3--3-3--3-|
E :-----------------|-----------------|---------------|---------------|


   D
(rip off you nuts and shovem down.....)
e :-2-X---------2-2-2-|-2-X---------2-2-2-|-2------------|--------------|
B :-3-X---------3-3-3-|-3-X---------3-3-3-|-3------------|--------------|
G :-2-X---------2-2-2-|-2-X---------2-2-2-|-2------------|--------------|
D :-0-X---------0-0-0-|-0-X---------0-0-0-|-0------------|--------------|
A :-------------------|-------------------|--------------|--------------|
E :-------------------|-------------------|--------------|--------------|



  ENDING::

   G	         C     G
e :-----3-3----3-0---|-3-------|
B :-----0-0----0-1---|-0-------|
G :-----0-0----0-0---|-0-------|
D :-0---0-0----0-2---|-0-------|
A :-2---2-2----2-3---|-2-------|
E :-3---3-3----3-----|-3-------|

   G    	  C   G
d :---2-0---------5--|-(5)-----|
B :-X-----0---0---0--|-(0)-----|
G :---------3-0-3-0--|-(0)-----|
D :------------------|---------|
            
Hard to play? Try these video lessons and learn fast. | Correct




comments powered by Disqus
↑ Back to top | Tablatures and chords are parodies/interpretations of the original songs. You may use it for private study, scholarship, research or language learning purposes only