>
 >
Sold My Soul

Sold My Soul Guitar Tabs

Zakk Wylde - Sold My Soul chords, tabs, tablatures, lyrics

Guitar lessons | Add/correct | Request | Top 50 tabs Artists:  A B C D E F G H I J K L M N O P Q R S T U V W X Y Z 0-9

Sold My Soul Guitar Tabs – Zakk Wylde

CD, Sheet music, Poster

Do you like Sold My Soul? Share with your friends now
Bass TabsTabs
the only part i havent got around to tabbing is the outro solo, other than that its all 
and all accurate.

E-||------------------|-----------------------------||-----------------|
B-||*-----------------|----------------0-0-----0-0-*||-----------------|
G-||--------0-----0---|-------0----4p6-6-6-4p6-6-6--||-----0--0-0------|
D-||------4---------4-|-----7---7--7---7-7-7---7-7--||-----4--4-4------|
A-||*---2-------2-----|-2/5------------------------*||-----2--2-2------|
E-||--0-------3-------|-----------------------------||-0-0-0--0-0--3-3-|

E|--------|-------------------------------|------------------------|----|
B|--------|-------------------0-0-----0-0-|------------------------|----|
G|-0--0-0-|-------0--0-0--4p6-6-6-4p6-6-6-|-----0--0-0------0--0-0-|----|
D|-4--4-4-|-------7--7-7--7---7-7-7---7-7-|-----4--4-4------4--4-4-|----|
A|-2--2-2-|-2/5-5-5--5-5------------------|-----2--2-2------2--2-2-|-2--|
E|-3--3-3-|-------------------------------|-0-0-0--0-0--3-3-3--3-3-|----|

E|-----------------------------|------------------------|--------------|
B|-----------------0-0-----0-0-|------------------------|--------------|
G|-----0--0-0--4p6-6-6-4p6-6-6-|-----0--0-0------0--0-0-|-------0--0-0-|
D|-----7--7-7--7---7-7-7---7-7-|-----4--4-4------4--4-4-|-------7--7-7-|
A|-5-5-5--5-5------------------|-----2--2-2------2--2-2-|-2/5-5-5--5-5-|
E|-----------------------------|-0-0-0--0-0--3-3-3--3-3-|--------------|


E|------------------|------------------------|---------------------------|
B|------0-0-----0-0-|------------------------|--------------------0-0----|
G|--4p6-6-6-4p6-6-6-|-----0--0-0------0--0-0-|-------0--0-0---4p6-6-6-4--|p
D|--7---7-7-7---7-7-|-----4--4-4------4--4-4-|-------7--7-7---7---7-7-7--|
A|------------------|-----2--2-2------2--2-2-|-2/5-5-5--5-5--------------|
E|------------------|-0-0-0--0-0--3-3-3--3-3-|---------------------------|

                                             chorus:
           bridge:     electric guitar/rotovibe acoustic guitar

E|-------|-0-------|---------|----------------||-||-----------0--0-0-|---------|
B|---0-0-|-0-------|---------|---------------*||-||*----------0--0-0-|---------|
G|-6-6-6-|-0-------|---------|--------0---0---||-||-----------0--0-0-|---------|
D|---7-7-|-2-------|---------|----------------||-||-----------2--2-2-|-------0-|
A|-------|-3-------|---------|---------------*||-||*----------2--2-2-|-------2-|
E|-------|---------|---------|------3---2-----||-||------0-0--0--0-0-|-3-3-3-3-|
       just sign right here son and everything will be allright

          A                     4x  from intro: bridge:  bridge:
                                         guitar 1

E|-3--3-|------0--0-0-|----------||-----||
B|-3--3-|------2--2-2-|---------*||-----||
G|-0--0-|------2--2-2-|---0---0--||-----||
D|-0--0-|------2--2-2-|----------||-----||
A|-2--2-|-0-0--0--0-0-|---------*||-----||
E|-3--3-|-------------|-3---2----||-----||
                      aint' -nothing -I wouldn't do

             E5                                    2x
                 guitar 2 + rotovibe

E||---|--------------------------------------||---------------|
B||---|--------------------12/10--10/8--8/7-*||---------------|
G||---|-7/9--9/11---11/12--------------------||---------------|
D||-2-|---------------------9/-7---7/5--5/3--||---------------|
A||-2-|-5/7--7/-9----9/11-------------------*||---------------|
E||-0-|--------------------------------------||-5p3-5---b2--r-|


   A5     bridge 2: G maj 7            Asus2-A Asus2-A 2x  Solo: |
      acoustic 12-string                                         |
                                                                 v
E|----||------------------|-----------------------------||-|------------|
B|----||*-----------------|----------------0-0-----0-0-*||-|------------|
G|----||--------0-----0---|-------0----4p6-6-6-4p6-6-6--||-|------------|
D|-7--||------4---------4-|-----7---7--7---7-7-7---7-7--||-|----------5-|
A|-7--||*---2-------2-----|-2/5------------------------*||-|-2p3--5/7---|
E|-5--||--0-------3-------|-----------------------------||-|------------|
     all for you

            A.H.


E|---------------------------------------|---------------------|-------|
B|---------------------------------------|---------------------|-------|
G|------7-9--2b4--r-0--------------------|---------------------|-------|
D|--7/9----------------2p0-2--0p2-0------|-4b5--4b5--4b5--r----|-------|
A|----------------------------------2-3--|-----------------7-5-|-------|
E|---------------------------------------|---------------------|-5-6-7-|


                                                                     Wah


E---------------------------|--------------------10-10--------------|----|
B---------------------------|--------7-8-10b12----------r10--8b9----|----|
G---------------------------|-9~---9------------------------------9-|-4--|p
D---------------------------|---------------------------------------|----|
A-----------5-6-7-7-7-8-9-9-|---------------------------------------|----|
E-7-5-6-7-7-----------------|---------------------------------------|----|

E|-----------------------------------------------------------------------|
B|-----------------------------------------------------------------------|
G|-5-4-5-4-5-4-5-4--5p7-5-7-5-7-5-7-5--7p9-7-9-7-9-7-9-7--9p11-9-11-9-11-|
D|-----------------------------------------------------------------------|
A|-----------------------------------------------------------------------|
E|-----------------------------------------------------------------------|

E|------------------------------------------------------------------------|
B|---------7p8-7-8-7--8p10-8-10-8--10p12-10-12-10--12p13-12-13-12---15b17-|
G|-9-11-9-----------------------------------------------------------------|
D|------------------------------------------------------------------------|
A|------------------------------------------------------------------------|
E|------------------------------------------------------------------------|

E-|--14b15--14-14--r-14--r-14--r-12--------|-------------------------------|
B-|---------------------------------15b17--|-------12-15-------12-15-------|
G-|----------------------------------------|-14b16-------14b16-------14b16-|
D-|----------------------------------------|-------------------------------|
A-|----------------------------------------|-------------------------------|
E-|----------------------------------------|-------------------------------|

E|--------------------------------15-12----------------------------------|
B|-12-15-------12-15-------12-15--------15-12-------15-12----------------|
G|-------14b16-------14b16--------------------14-12-------14-12-------14-|
D|--------------------------------------------------------------14-12----|
A|-----------------------------------------------------------------------|
E|-----------------------------------------------------------------------|

E|----------------------------|-------------------------------15-15-------|
B|--------------14b16--r12----|-12--14-12-14b16--r-12--15b17--------14b16-|
G|-12-----------14b16--r12----|-12--14-12-14b16--r-12---------------14b16-|
D|----14-12----------------14-|-------------------------------------------|
A|----------14----------------|-------------------------------------------|
E|----------------------------|-------------------------------------------|

                                           chorus:

E|--------------|-2--0p2-0------------------|--|
B|--r-----------|----------4-0--------------|--|
G|--r-12b13-----|--------------2------------|--|
D|-----------14~|----------------4-2-1------|--|
A|--------------|----------------------2~---|--|
E|--------------|---------------------------|--|





Comments


Popular Zakk Wylde tabs & chords
Between Heaven And Hell Chords
Evil Ways Chords
Way Beyond Empty Chords
Guitar Battle Intro Tabs
Just Killing Time Intro Tabs
Peddlers Of Death Tabs
The Things You Do 1 Tabs
Throwin' It All Away Tabs
Too Numb To Cry Tabs
Too Numb To Cry Ukulele


Song lyrics



↑ Back to top | Tablatures and chords are parodies/interpretations of the original songs. You may use it for private study, scholarship, research or language learning purposes only
© 2014 AZChords.com Contact us | Privacy policy | DMCA | Add/correct tabs | Request tabs | Top 50 tabs