>
 >
Between Heaven And Hell 2

Between Heaven And Hell 2 Guitar Tabs

Zakk Wylde - Between Heaven And Hell 2 chords, tabs, tablatures, lyrics

Guitar lessons | Add/correct | Request | Top 50 tabs Artists:  A B C D E F G H I J K L M N O P Q R S T U V W X Y Z 0-9

Between Heaven And Hell 2 Guitar Tabs – Zakk Wylde

CD, Sheet music, Poster

Do you like Between Heaven And Hell 2? Share with your friends now
ChordsTabsTabs v2Tabs v3Ukulele
x = Palm Mute
^ = Hammer On

Standard Tunning

As of yet, haven't done the solo part. Email me if you have it.                                     
E-|--3-x-----3-----3-x-3-----0-----0-|-------0-----0--0--0-----0-----0-|
b-|--3-x-----3-----3-x-3-----0-----0-|-------0-----0--0--0-----0-----0-|
g-|--0-x-----0-----0-x-0-----0-----0-|-------2-----2--2--2-----2-----2-|
d-|----------0-----0-x-0-----2-----2-|-------3-----3--3--3-----3-----3-|
A-|----------2-----2-x-2-----2-----2-|-------3-----3--3--3-----3-----3-|
e-|-------3--3-----3-x-3-----0-----0-|---1---1-----1--1--1-----1-----1-|
        
     
    
e-|----------3-----3-x-3-----0-----0-|---0---0--0---0-0-0--|
b-|----------3-----3-x-3-----0-----0-|---1---1--1---1-1-1--|
g-|----------0-----0-x-0-----0-----0-|---2---0--0---2-2-2--|
d-|----------0-----0-x-0-----2-----2-|---3---3--0---3-3-3--|
A-|----------2-----2-x-2-----2-----2-|---------------------|
E-|-------3--3-----3-x-3-----0-----0-|---------------------|

                                     


Revised (and Right) Chorus:
-----------------------------------------------|------------------------------
--------------------------1-------0------------|------------------------------
--------0-------0-----------0--------0---------|------0-------0---------------
----------0-------4-----------2----------------|--------0-------4-------------
------------5-------5-3------------------2--0--|----------5-------5--3--------
---3-------------------------------------------|-3----------------------------
                                                                              

--------------------|--------------------------------------|-0----------------
--1-------0---------|-------------------------1------------|-1----------------
----0-------2--0----|-----0--------0-------------0---------|-0----------------
------2-----------0-|-------0--------4---------------------|-2----------------
--------------------|---------5--------5--3----------2--0--|-3----------------
--------------------|--3-----------------------------------|------------------



Outro, Guitar 1:

                                           Gsus4 G 
e-|---------------------------|-----|-----|-------------------------
b-|---------------------------|-----|-----|--1---0------------------
g-|-----0-----0-------0-----0-|--%--|--%--|--0-------0--------------
d-|------0-----0-------0---0--|-----|-----|--2------(0)-------------
A-|-------0-------------0^2---|-----|-----|--3------(2)-------------
E-|--1-------2----3-----------|-----|-----|--0------(3)-------------
                                            let ring





Comments


Popular Zakk Wylde tabs & chords
Between Heaven And Hell Chords
1,000,000 Miles Away Tabs
Between Heaven And Hell Intro Tabs
Concrete Jungle Tabs
Cry Me A River Tabs
Dead As Yesterday 1 Tabs
Sp Shuffle Tabs
Too Numb To Cry Tabs
Road Back Home Ukulele
What Youre Looking For Ukulele


Song lyrics



↑ Back to top | Tablatures and chords are parodies/interpretations of the original songs. You may use it for private study, scholarship, research or language learning purposes only
© 2014 AZChords.com Contact us | Privacy policy | DMCA | Add/correct tabs | Request tabs | Top 50 tabs