» » »

Zac Brown Band, Chicken Fried Tabs (ver.2)

Artists:  A B C D E F G H I J K L M N O P Q R S T U V W X Y Z # 

Chicken Fried Tabs (ver.2)

Zac Brown Band Tabs
 Rating:
4/5 (8 votes)
Chicken Fried lessons Tabs too difficult? Try these video lessons and learn fast
                (Intro)
                       Chicken Fried


you can use a capo on 2 if you wishbut it definately
sounds about right so enjoy...

                       -FuttBuchan-

e|-------------------------------------------------|
B|-1/3--1/3--------------------3--1/3---3----------|
G|-2/4--2/4--2p0-----0-----0------2/4-----4---2----|
D|---------------2p0-----0---0--------0-----0------|
A|-------------------------------------------------|
E|-------------------------------------------------|

e|-------------------------------------------------|
B|--------------1p0-------------------3------------|
G|----2---4p2p0------0------0---2---4--------------|
D|--0---0-----------------0---0---0----------------|
A|-------------------------------------------------|
E|-------------------------------------------------|

e|-------------------------------------------------|
B|-------------------------------------------------|
G|---2---4---5---4 0-------------------------------|
D|-0---0---0---0-----------------------------------|
A|-------------------------------------------------|
E|-------------------------------------------------|


| /  slide up
| \  slide down
| h  hammer-on
| p  pull-off
| ~  vibrato
| +  harmonic
| x  Mute note
            
Submit corrections

comments powered by Disqus
↑ Back to top | Zac Brown Band Tabs for Chicken Fried. Lyrics for acoustic guitar and electric guitar. Tablatures and chords are parodies/interpretations of the original songs. You may use it for private study, scholarship, research or language learning purposes only