» » »

Zac Brown Band, Chicken Fried Tabs (ver.1)

Artists:  A B C D E F G H I J K L M N O P Q R S T U V W X Y Z # 

Chicken Fried Tabs (ver.1)

Zac Brown Band Tabs
 Rating:
4.7/5 (13 votes)
Chicken Fried lessons Tabs too difficult? Try these video lessons and learn fast
                b=bend
v=vibrato
p=pulloff
h=hammer on
/=slide
r=roll
x=do not hit the strings that have this on it
||-
||o
||-= repeat
||-
||o
||-


Chicken fried
zac brown band
any trouble with this tab contact me on my user profile this song sounds real good with 
classical guitar. also make sure that the
TUNEING IS HALF STEP DOWN
D# A# F# C# G# D#

Intro:

||-----------------------------3----------------------------------|
||--1/3--3--3-------------------------0--1/3--3------------3------|
||--2/4--4----4---0-----------------0----2/4----4----2-2-----2----|
||--------------0---0-------0---------------------0------0-----0--|
||--------------------2---2---------------------------------------|
||----------------------3-----------------------------------------|
-
|-------------------------------------------------------||
|--1p0----1-0--------------3---1p0---0-1----------------||
|--0----0-----0-------0------0-----0--------------------||
|-------------------2---------------------------------0-||
|-----------------3-------------------------0-3-0-2-0---||
|-------------------------------------------------------||

Verse 1

  G                   D                        C
||---3------3-------|-----------------------|------------------------|
||---3--------3-----|----7----------7-----7-|----5-----------5-----5-|
||---4----4-----4---|----7-----7------7-----|----5-----5-------5-----|
||-5----5---------5-|-----------------------|------------------------|
||------------------|--5-----5----------5---|--3-----3-----------3---|
||------------------|-----------------------|------------------------|

   G                  D
|--3---------------|--2----------------||
|--3---------------|--3----------------||
|--0---------------|--2----------------||
|--0---------------|--0----------------||
|--2---------------|-------------------||
|--3---------------|-------------------||


Intro to verse 2: Strum these chords until verse 2 starts

   G                D                 C                G       D
||--3------------|--2--------------|--0-------------|--3-------2---||
||--3------------|--3--------------|--1-------------|--3-------3---||
||--0------------|--2--------------|--0-------------|--0-------2---||
||--0------------|--0--------------|--2-------------|--0-------0---||
||--2------------|--x--------------|--3-------------|--2-------x---||
||--3------------|--x--------------|--x-------------|--3-------x---||

Verse 2: if you want to see how this is played go to this url:

    G              D                  C              D
||-----3-3--3-3--|---------------|---------------|---------------|
||-----3-3--3-3--|-----7-7--7-7--|-----5-5--5-5--|-----7-7--7-7--|
||-----4-4--4-4--|-----7-7--7-7--|-----5-5--5-5--|-----7-7--7-7--|
||-----5-5--5-5--|-----7-7--7-7--|-----5-5--5-5--|-----7-7--7-7--|
||--4--5-5--5-5--|--5--5-5--5-5--|--3--3-3--3-3--|--5--5-5--5-5--|
||-----3-3--3-3--|---------------|---------------|---------------|

   G                D              C               G
|--3-------------|--2-----------|--0------------|------------3------|
|--3-------------|--3-----------|--1------------|----------3---3----|
|--0-------------|--2-----------|--0------------|--------0----------|
|--0-------------|--0-----------|--2------------|------0------------|
|--2-------------|--x-----------|--3------------|----2--------------|
|--3-------------|--x-----------|--x------------|--3----------------|

  G                  D               C               D
|-----3-3--3-3--|---------------|---------------|---------------|
|-----3-3--3-3--|-----7-7--7-7--|-----5-5--5-5--|-----7-7--7-7--|
|-----4-4--4-4--|-----7-7--7-7--|-----5-5--5-5--|-----7-7--7-7--|
|-----5-5--5-5--|-----7-7--7-7--|-----5-5--5-5--|-----7-7--7-7--|
|--5--5-5--5-5--|--5--5-5--5-5--|--3--3-3--3-3--|--5--5-5--5-5--|
|---------------|---------------|---------------|---------------|

   G               D                C           D
|-----3-3--3-3--|---------------|------------------||
|-----3-3--3-3--|-----7-7--7-7--|-----5-5--5-5--7--||
|-----4-4--4-4--|-----7-7--7-7--|-----5-5--5-5--7--||
|-----5-5--5-5--|-----7-7--7-7--|-----5-5--5-5--7--||
|--5--5-5--5-5--|--5--5-5--5-5--|--3--3-3--3-3--5--||
|-----3-3--3-3--|---------------|------------------||

Chorus:2xs    Just strum along with these chords

     G               D               C              G         D
||---3------------|--2------------|--0-----------|--3---------2---||
||o--3------------|--3------------|--1-----------|--3---------3--o||
||---0------------|--2------------|--0-----------|--0---------2---||
||---0------------|--0------------|--2-----------|--0---------0---||
||o--2------------|--x------------|--3-----------|--2---------x--o||
||---3------------|--x------------|--x-----------|--3---------x---||


Verse 3: 2xs

    G                D                   C             D
||------3-3--3-3--|---------------|---------------|----------------||
||o-----3-3--3-3--|-----7-7--7-7--|-----5-5--5-5--|-----7-7--7-7--o||
||------4-4--4-4--|-----7-7--7-7--|-----5-5--5-5--|-----7-7--7-7---||
||------5-5--5-5--|-----7-7--7-7--|-----5-5--5-5--|-----7-7--7-7---||
||o--5--5-5--5-5--|--5--5-5--5-5--|--3--3-3--3-3--|--5--5-5--5-5--o||
||------3-3--3-3--|---------------|---------------|----------------||

   G               D               C                G
|--3------------|--2------------|--0-------------|------------3----|
|--3------------|--3------------|--1-------------|----------3---3--|
|--0------------|--2------------|--0-------------|--------0--------|
|--0------------|--0------------|--2-------------|------0----------|
|--2------------|--x------------|--3-------------|----2------------|
|--3------------|--x------------|--x-------------|--3--------------|

Repeat the chorus then keep on repeating the chords till the end until this lick comes 
You play it like this:

||-------------------||
||-------------------||
||-------------------||
||--------------3-5--||
||--------3-5-3------||
||--3-3-5------------||
            
Submit corrections

comments powered by Disqus
↑ Back to top | Zac Brown Band Tabs for Chicken Fried. Lyrics for acoustic guitar and electric guitar. Tablatures and chords are parodies/interpretations of the original songs. You may use it for private study, scholarship, research or language learning purposes only