» » »

Chicken Fried Bass tabs (ver.1)

Artists:  A B C D E F G H I J K L M N O P Q R S T U V W X Y Z # 

Chicken Fried Bass tabs (ver.1)

Zac Brown Band
Rating:
0/5 (0 votes)

Hard to play? Try these video lessons and learn fast.
                
G-----------------------------------------------------------------------------|
D---4---------------------------------------4---------------------------------|
A------4--1--------1--2--4-----4---4--3--2-----2--1-------------1-2-4-2-1-----|
E------------2--4-----------4-----4------------------4--2-2--4------------4-2-|

G-------------------------------------------------------------|
D-------------------------------------------------------------|
A---44--2--44-2-1-------------44--2--44-2-1------44-2-1-2-3-4-|
E-----------------4-2------2----------------4-2---------------|
            
Hard to play? Try these video lessons and learn fast. | Correct




comments powered by Disqus
↑ Back to top | Tablatures and chords are parodies/interpretations of the original songs. You may use it for private study, scholarship, research or language learning purposes only